.

banners

Tablatura fácil de...Distant memories. Blind Guardian.

Tabs_facil_blind_guardian

  El último trabajo de Blind Guardian despertaba opiniones dispares, o quizás no tanto. 
 "Beyond the red mirror" se puede ver desde dos perspectivas, o es una desilusión por que carece de toda esa fuerza y ese power metal alemán, o, es una nueva apuesta de la banda, con más orquestación, con temas más épicos, etc. 
 A mi me han pasado por la cabeza ambas opiniones, la primera escucha me dejo bastante perplejo y decepcionado y la segunda, me hizo pensar en ese cambio de aires, al que todos los grupos tienen derecho, llámese evolución, cambio de rumbo, o simplemente que los años no pasan en balde.
  Sea como fuere aquí os dejo mi versión del inicio en tablatura fácil de "Distant memories." que espero que os guste y la disfrutéis.
  Un saludo.
  TabsFácil.





Distant memories. Blind Guardian.


1.--------------------------------------------
2.-----2--4-2--2-4-5-4-2-----2-4-2-----2--4-2-
3.---1-------------------4-1---------1--------
4.--------------------------------------------
5.--------------------------------------------
6.--------------------------------------------

1.-------------------------4----2-4-5--2-4-5-4
2.---2-4-5-4-2-----2-4-2-----5----------------
3.-------------4-1----------------------------
4.--------------------------------------------
5.--------------------------------------------
6.--------------------------------------------

1.---2---4---2-4-2---4----2-4-5--2-4-5-4-2---4
2.-----5---5-----------5-------------------5--
3.--------------------------------------------
4.--------------------------------------------
5.--------------------------------------------
6.--------------------------------------------

1.-----2-4-2----------------------------------
2.---5-------------(HH)-----------------------
3.---------------6--8-6--6-8-9-8-6-8----8-9-8-
4.-------------6---------------------9--------
5.--------------------------------------------
6.--------------------------------------------

1.-------------------------------------------
2.-----7-9-7---------(HH)--------------------
3.---6-------9-8-6--6-8-6---6--8-9-8-6-8---8-
4.---------------------------------------9---
5.-------------------------------------------
6.-------------------------------------------

1.-----------------------
2.--(HH)-----4-5-4-------
3.---9-8---4-------6-4---
4.-----------------------
5.-----------------------
6.------------------------...






No hay comentarios:

Publicar un comentario