.

banners

Tablatura fácil de... Time for Bedlam. Deep Purple.

tablaturas_deep_purple_infinite


  El álbum número 20 de la banda Deep Purple, de título "Infinite" llegará el próximo 7 de Abril. Un poco antes, en Febrero lanzarán un EP, "Time for Bedlam" en el que podremos encontrar algunos temas que no entrarán en el disco. A todo esto, de momento ya hay single adelanto con el título "Time for Bedlam" y, como no, aquí en Tablaturas fáciles ya puedes disfrutar y practicar con tu guitarra con el tema en cuestión.
  Un saludo.
  TabsFácil.






Time for Bedlam. Deep Purple.


"Right from...    Ahhh...

1.----------------------------|
2.----------------------------|
3.----------------------------|
4.-4---------2--------5--4--2-|
5.-2---------0--------3--2--0-|
6.----------------------------|


  "Sucking...    Ahhh...

1.----------------------------|
2.----------------------------|
3.----------------------------|
4.-4---------2--------5--4--2-|
5.-2---------0--------3--2--0-|
6.----------------------------|


1.------------------------|
2.------------------------|
3.------------------------|
4.-7---------------2----4-|
5.-5--7--5---5--4--0----2-|
6.----5--3---3--2---------|


(1:46)

1.-7-5--7-8-7-5-7---5-7-5---5-|
2.----------------8-------8---|
3.----------------------------|
4.----------------------------|
5.----------------------------|
6.----------------------------|


1.-----5---------7------------|
2.-6-8---8-6-5-8---6---5-6-5--|
3.-------------------7-------7-
4.----------------------------|
5.----------------------------|
6.----------------------------|


1.------------------------|
2.-5----------------------|
3.---7--5-5--4-5-7--5-4---|
4.----------------------7-|
5.------------------------|
6.------------------------|...


(1:59)

1.----------------------8-10h8h7-8
2.----------------10-10-----------|
3.------------9-9-----------------|
4.-7-7--10-10---------------------|
5.--------------------------------|
6.--------------------------------|

1.--------------------------------|
2.----------------10-10--8-10h8-6-|
3.------------9-9-----------------|
4.-7-7--10-10---------------------|
5.--------------------------------|
6.--------------------------------|


1.-----------------------------8--|
2.-8h6-5-----------------10-10----|
3.-------------------9-9----------|
4.--------7-7--10-10--------------|
5.--------------------------------|
6.--------------------------------|


1.-10h8h7-8-----------------------|
2.---------------------------10-10
3.-----------------------9-9------|
4.------------7-7--10-10----------|
5.--------------------------------|
6.--------------------------------|


1.-------------------------|
2.-8-10h8-6--8h6-5--6h5----|
3.----------------------7--|
4.-------------------------|
5.-------------------------|
6.-------------------------|...





No hay comentarios:

Publicar un comentario en la entrada