.

banners

Tablatura fácil de... Pain. U.D.O.




 Uno de los grandes del metal mundial, primero por su carrera en Accept y después por su carrera en solitario tan larga ya seguramente como la primera.
  Del álbum "Decadent" hemos extraído "Pain" que nos recuerda  ese espíritu U.D.O. que tantos y tantos temas buenos tiene. El caso que aquí os dejo unos momentos en tablatura del inicio del tema para que disfrutéis.
  Un saludo.
  TabsFácil.



Pain. U.D.O.


Guitarra 2.
1.-----------------------------------------
2.-----------------------------------------
3.------------------/10-8-7--5-------------
4.---5/10--10-12-13------------5--6/3--5/1-
5.-----------------------------------------
6.-----------------------------------------

Guitarra 1.
1.-----------------------------------------
2.-----------------------------------------
3.-----------------------------------------
4.---5---------------------------8---------
5.---3------6--------------------6-----8---
6.----------4--------------------------6---

Guitarra 2.
1.-------------------------------------------
2.-------------------------------------------
3.-------------/10-8-7-8-/12--13/10--10h12h10
4.---/10-12-13-------------------------------
5.-------------------------------------------
6.-------------------------------------------

Guitarra 1.
1.----------------------------------
2.----------------------------------
3.----------------------------------
4.---5--------------------8---------
5.---3------6-------------6-----8---
6.----------4-------------------6---

Guitarra 2.
1.--------------------------
2.--------------------------
3.---8h10h8--7h8h7--5h7h5---
4.--------------------------
5.--------------------------
6.-----------------------...


(0:14)Guitarra 1.
1.--------------------------------------------
2.--------6-6--4-6-4-6--4-4-3-4--3--4--6-4-3--
3.--5-7-8------------------------------------5
4.--------------------------------------------
5.--------------------------------------------
6.--------------------------------------------

Guitarra 1.
1.--------------------------------------------
2.--------6-6--4-6-4-6--4-4-3-4--3--4--6-6-6-6
3.--5-7-8-------------------------------------
4.--------------------------------------------
5.--------------------------------------------
6.--------------------------------------------

(0:26) Guitarra 1.
1.--------------------------------------------
2.--------6-6--4-6-4-6--4-4-3-4--3--4--6-4-3--
3.--5-7-8------------------------------------5
4.--------------------------------------------
5.--------------------------------------------
6.--------------------------------------------

(0:26) Guitarra 2.
1.------------------------------------------
2.----------------------------9-------------
3.-------------3-/5-0---10h12---------------
4.---5--/5-3-1------------------10-10--10h8-
5.------------------------------------------
6.------------------------------------------

Guitarra 1.
1.-------------------------------------------
2.--------6-6--4-6-4-6--4-4-3---------4-3----
3.--5-7-8------------------------------------
4.-----------------------------8-----------5-
5.-----------------------------6--8--------3-
6.--------------------------------6-------...

Guitarra 2.
1.------------10----8--8-----8-------------
2.---------------11-----11----8-/11-8------
3.---12-8-10--------------------------10h8-
4.-----------------------------------------
5.-----------------------------------------
6.-----------------------------------------

Guitarra 2.
1.----------------------------
2.----------13-11--/11-9-8----
3.-------12----------------10-
4.---/12----------------------
5.----------------------------
6.---------------------------...




No hay comentarios:

Publicar un comentario