.

banners

Tablatura fácil de... Open fire. The darkness.


  Segundo tema  y primer single  de lo que sería y es, el último trabajo de The Darkness,  "Last of  our kind" , uno de esos discos más que esperado por muchos, entre los que me incluyo yo. Para mí The Darkness fue un golpe de aire fresco para la música en general, pero sobre todo para el rock, género tan machacado, durante décadas.
  El caso que os quiero dejar unos momentos en tablatura del tema "Open fire" que espero que os guste y disfrutéis como yo lo he hecho.
  Un saludo.
  TabsFáciles.
    







Open fire. The darkness.


1.--------8-8-7---5-------5-5-7--------

2.--------------8---------------8------
3.-------------------------------------
4.---0-0-------------0-0-----------0-0-
5.-------------------------------------
6.-------------------------------------

1.---8-8-7---10-10-8-7-8---------8-8-7-

2.---------8-------------8-------------
3.-------------------------------------
4.--------------------------0-0--------
5.-------------------------------------
6.-------------------------------------

1.-----5-------5-5-7--------8-8-7---10-

2.---8---------------8------------8----
3.-------------------------------------
4.-------0-0-----------0-0-------------
5.-------------------------------------
6.-------------------------------------

1.---10-8-7-8--------------------------

2.------------8------------------------
3.---------------------5-5h4------5---4
4.------------------7--------5------7--
5.------------------5----------5-------
6.-------------------------------------

1.---------------------------------

2.---------------------------------
3.--------5-5h4--/7-7-5-4h5--------
4.---5-7----------------------5-/7-
5.----------------------------3-/5-
6.---------------------------------...

  (1:52)  "...Open fire..."

1.------------------------------------
2.------------------------------------
3.------------------------------------
4.---7--7-7-7-7--7--5--5-5-5-5--5-----
5.---5--5-5-5-5--5--3--3-3-3-3--3--5--
6.---------------------------------3--

1.-----------------------------

2.-----------------------------
3.-----------------------------
4.-----------------------------
5.---5-5-5-5--5--3--3-3-3-3--3-
6.---3-3-3-3--3--1--1-1-1-1--1-...






No hay comentarios:

Publicar un comentario en la entrada