.

banners

Tablatura fácil de... Mi destino. Zenobia.


   Desde hace ya unos días que podemos disfrutar todos los seguidores de Zenobia de su "Alma de fuego 2," su última obra. Un disco repleto de buenos temas, como nos tiene acostumbrados la banda riojana.
  En www.tabsfacil.es hoy queremos dejarte un momento en tablatura del tema "Mi destino" en concreto el riff principal que esperamos que, os guste y lo disfrutéis.
  Un saludo.
  TabsFácil.





Mi destino. Zenobia.


1.-----------------------------|
2.-----------------------------|
3.-----2h3h2h0---0-------------|
4.-0-0---------4----4-5-1--1-3-
5.-----------------------------|
6.-----------------------------|

1.-----------------------------|
2.-----------------------------|
3.-----2h3h2h0---0----7-7-7-7--|
4.-0-0---------4---------------|
5.-----------------------------|
6.-----------------------------|

1.-----------------------------|
2.-----------------------------|
3.-8-8-8-8-10-10-10-10-12-12-12
4.-----------------------------|
5.-----------------------------|
6.-----------------------------|

1.-----------------------------|
2.-----------------------------|
3.-12/17---2-2--2h3h2h0---0----|
4.---------0-0----------4---4-5
5.-----------------------------|
6.-----------------------------|

1.-----------------------------|
2.-----------------------------|
3.-------------2h3h2h0---------|
4.-1--1-3--0-0---------4--0-2-3
5.-----------------------------|
6.-----------------------------|

1.-----------------------------|
2.-----------------------------|
3.-------------2--2-2----------|
4.-2--2-3-5-3--0--0-0----------|
5.-----------------------------|
6.-----------------------------|...



No hay comentarios:

Publicar un comentario