.

banners

Tablatura fácil de... ManUnKind. Metallica.


   Desde que Metallica anunciará la salida de su esperado último trabajo, en www.tabsfacil.es hemos ido desgranando el álbum a modo de, como ya sabéis los que nos visitáis habitualmente, pequeños momentos en tablatura para todos los amantes del grupo y de la guitarra...
  Otra de esas canciones para guitarra que os queremos dejar para que sigas disfrutando y practicando por qué no es "ManUnKind" de la que os volvemos a dejar un pequeño Tabs que esperamos que os guste y disfrutéis.
  Un saludo. 
  TabsFácil.




Tablatura fácil de... ManUnKind. Metallica.

1.---------------------------------------------|
2.---10--10----10--10-----10----10--10----8--8-|
3.-9---------9----------9-----9---------9------|
4.---------------------------------------------|
5.---------------------------------------------|
6.---------------------------------------------|


1.----------------------------------------|
2.---8--8-8----------8h10h8/-6------------|
3.-7---7-----7------9-----------9-7/-9----|
4.-------------9/10--------------------11-|
5.----------------------------------------|
6.----------------------------------------|

1.---------------------------------------------|
2.---10--10----10--10-----10----10--10----8--8-|
3.-9---------9----------9-----9---------9------|
4.---------------------------------------------|
5.---------------------------------------------|
6.---------------------------------------------|


1.----------------------------------------|
2.---8--8-8----------8h10h8/-6------------|
3.-7---7-----7------9-----------9-7/-9----|
4.-------------9/10--------------------11-|
5.----------------------------------------|
6.----------------------------------------|...


1.----------------------------------------------|
2.----------------------------------------------|
3.----------------------------------------------|
4.----------------------------------------------|
5.-9\-9-9-9--9-9\---9-9-9--9-9\--9-9-9--2-3-4-7-|
6.-7\-7-7-7--7-7\---7-7-7--7-7\--7-7-7--0-1-2-5-|

1.----------------------------------------------|
2.----------------------------------------------|
3.----------------------------------------------|
4.----------------------------------------------|
5.-9\-9-9-9--9-9\---9-9-9--9-9\--9-9-9--2-3-4-7-|
6.-7\-7-7-7--7-7\---7-7-7--7-7\--7-7-7--0-1-2-5-|...


1.-------------------------------------------|  
2.-------------------------------------------|
3.-------------------------------------------|
4.-------------------------------------------|
5.-4--4--4--4--2-3-4-7---4--4--4--4--2-3-4-7-|
6.-2--2--2--2--0-1-2-5---2--2--2--2--0-1-2-5-|...



1.---------------------------------------------|
2.---------------------------------------------|
3.---------------------------------------------|
4.---4-----4---------4-----4---------4-----4---|
5.-----2h3---3---------2h3---3---------2h3---3-|
6.-2-----------0---2-----------0---2-----------|

1.---------------|
2.---------------|
3.---------------|
4.---------------|
5.----2--3--4--7-|
6.-0--0--1--2--5-|

1.---------------------------------------------|
2.---------------------------------------------|
3.---------------------------------------------|
4.---4-----4---------4-----4---------4-----4---|
5.-----2h3---3---------2h3---3---------2h3---3-|
6.-2-----------0---2-----------0---2-----------|

1.---------------|
2.---------------|
3.---------------|
4.---------------|
5.----2--3--4--7-|
6.-0--0--1--2--5-|...


No hay comentarios:

Publicar un comentario