.

banners

Tablatura fácil de... Jingle Bells. Víctor de Andrés.



 Desde hace unos días aprovechando las fechas que vienen y que Victor de Andrés nos propone en su Vlog una divertida interpretación del clásico navideño "Jingle Bells" al estilo de algunos de los grupos más representativos del panorama metal mundial, entre otros estilos, hemos querido dejarte aquí en Tablaturas fáciles  unos momentos en tablatura del vídeo en cuestión.



  No podemos, de echo no lo hacemos, esconder la debilidad que sentimos por este prolífico guitarrista que, no solo nos encanta por su forma de tocar o por los increíbles cover que realiza de todo tipo de canciones, sino también, por su manera de ver la vida en general y el mundo de la guitarra en particular, y de como nos lo cuenta en su canal de YouTube.
   
   Hoy te queremos dejar el recopilatorio que hemos hecho en su totalidad, con las tabs al estilo de bandas como Iron Maiden, Metallica, ZZ Top o Helloween.







  Esperamos que lo disfrutéis tanto como lo hemos hecho nosotros y como no, Felices Fiestas a todos!!


  Un saludo. 
  Tabs Fácil.


Jingle Bells al estilo Helloween. Víctor de Andrés.


(0:54).

1.------------------------------|
2.-----------------6------11-10-|
3.-7-7-7--7-7-7--7-----5--------|
4.-------------------8----------|
5.------------------------------|
6.------------------------------|

1.------------------------------|
2.------------------------------|
3.-12-10-8--------------------8-|
4.---------12-10-8----8-10-12---|
5.-----------------12-----------|
6.------------------------------|

1.-----------11-11-11--11-11-10-|
2.-------10---------------------|
3.-10-12------------------------|
4.------------------------------|
5.------------------------------|
6.------------------------------|

1.-10-10-10-------10----------|
2.----------13-13----13---/18-|
3.----------------------------|
4.----------------------------|
5.----------------------------|
6.----------------------------|






Jingle Bells al estilo de ZZ Top. Víctor de Andrés.



(1:07)

1.-----------------------------|
2.-----------------------------|
3.-------7-7--5(7)-7--7-7--5(7)
4.---5-8-----------------------|
5.-8---------------------------|
6.-----------------------------|

1.-----------------------------|
2.------6-------------6--------|
3.-7--7-----5--5(7)-7---7-5-5(7)
4.--------8--------------------|
5.-----------------------------|
6.-----------------------------|

1.-----------------------------|
2.---6--------4-4-4--4-4h3-3--3
3.-7---7-5---------------------|
4.---------8-------------------|
5.-----------------------------|
6.-----------------------------|

1.-------------11-11-10--8-8---|
2.---3-----------------------11
3.-5---3--/10------------------|
4.-----------------------------|
5.-----------------------------|
6.-----------------------------|...







Jingle Bells al estilo de Metallica. Víctor de Andrés.



       (2:00)

1.------------------------------|
2.-13(15)-13(15)-13(15)--13(15)-|
3.------------------------------|
4.------------------------------|
5.------------------------------|
6.------------------------------|

1.-----------------------13-----|
2.-13(15)-13(15)--13(15)----11-13
3.------------------------------|
4.------------------------------|
5.------------------------------|
6.------------------------------|

1.-11-------11-------11--14-11--|
2.----13-11----13-11-----------13
3.------------------------------|
4.------------------------------|
5.------------------------------|
6.------------------------------|

1.-14-11----14-11----14---------|
2.-------13-------13----16-16-16
3.------------------------------|
4.------------------------------|
5.------------------------------|
6.------------------------------|

1.-----------------------------|
2.-16-16-15-15--18tr--16-13----|
3.--------------------------15-|
4.-----------------------------|
5.-----------------------------|
6.-----------------------------|...



Jingle Bells al estilo Iron Maiden. Víctor de Andrés.


(2:13)

1.---------------------------------|
2.---3-----------------3-----------|
3.-----5-3---3-3h5h3h5---3-3h5h3h5-|
4.-3-------3-----------------------|
5.---------------------------------|
6.---------------------------------|

1.------------------6---6----------|
2.-----3--------6-8---8---8-6-8-6-8
3.-------5-3--7--------------------|
4.-5-------------------------------|
5.---------------------------------|
6.---------------------------------|

1.---------------------------------|
2.-6---6---6-----------------------|
3.---7---7---7-5-7-5-7-5---5---5---|
4.-----------------------8---8---8-|
5.---------------------------------|
6.---------------------------------|

1.------------------3---------|
2.--------3-----6-6---6-4-----|
3.----------5-3-----------5-3-
4.-5---5----------------------|
5.---8------------------------|
6.----------------------------|...


No hay comentarios:

Publicar un comentario en la entrada