.

banners

Tablatura fácil de... Jingle Bells al estilo Iron Maiden. Victor de Andrés.


  Para estas fechas que vienen Victor de Andrés nos propone en su Vlog una divertida interpretación del clásico navideño "Jingle Bells" al estilo de algunos de los grupos más representativos del panorama metal mundial, entre otros estilos.
  Aquí en Tablaturas fáciles te queremos dejar un momento en tablatura del vídeo en el que el genial guitarrista nos interpreta el villancico al estilo de Iron Maiden.
  Esperamos que os guste y disfrutéis.
  Un saludo. 
  Tabs Fácil.






Jingle Bells al estilo Iron Maiden. Víctor de Andrés.


(2:13)

1.---------------------------------|
2.---3-----------------3-----------|
3.-----5-3---3-3h5h3h5---3-3h5h3h5-|
4.-3-------3-----------------------|
5.---------------------------------|
6.---------------------------------|

1.------------------6---6----------|
2.-----3--------6-8---8---8-6-8-6-8
3.-------5-3--7--------------------|
4.-5-------------------------------|
5.---------------------------------|
6.---------------------------------|

1.---------------------------------|
2.-6---6---6-----------------------|
3.---7---7---7-5-7-5-7-5---5---5---|
4.-----------------------8---8---8-|
5.---------------------------------|
6.---------------------------------|

1.------------------3---------|
2.--------3-----6-6---6-4-----|
3.----------5-3-----------5-3-
4.-5---5----------------------|
5.---8------------------------|
6.----------------------------|...






No hay comentarios:

Publicar un comentario