.

banners

Tablatura fácil de... Gods of violence. Kreator.




"Gods of violence" es el título del disco y el del tema elegido para presentarlo por los alemanes Kreator, disco que saldrá en Enero y con el que empezarán una extensa gira...
  Kreator una banda mítica que continúa más en forma que nunca y de la cual os presentamos un momento en tablatura de su tema adelanto para que disfrutéis y practiquéis con su tralla.
  Un saludo.
  TabsFácil.






Gods of violence. Kreator.


1.--------------------------------|
2.-/10---10---/8---8---/10---10---|
3.-----7----7----7---7-----7----7-|
4.--------------------------------|
5.--------------------------------|
6.--------------------------------|

1.-8-7h8h7------------------------|
2.---------8-10--/10---10---/8---8
3.-------------------7----7----7--|
4.--------------------------------|
5.--------------------------------|
6.--------------------------------|

1.--------------------|
2.-/10---10-----------|
3.-----7----7---------|
4.------------10-9-7--|
5.--------------------|
6.--------------------|...


(1:06)

1.-----------------------------|
2.-----------------------------|
3.---------------------------2-|
4.-7-5-7----------2-3-5--3-5-0-|
5.-------8--7-5-3--------1-3---|
6.-----------------------------|

1.--------------------------------|
2.--------------------------------|
3.--------------------------------|
4.-7-5-7-8-7-5-------------3-3-3-3
5.-------------8--1-1-1-1---------|
6.--------------------------------|

1.--------------------------------|
2.--------------------------------|
3.--------------------------------|
4.-2-2-2-2-0-0-0-0---------1-1-1-0
5.-----------------3-3-3-3--------|
6.--------------------------------|

1.--------------------------------|
2.--------------------------------|
3.---------------------------2----|
4.-7-5-7----------2-3-5--3-5-0--7-|
5.-------8--7-5-3--------1-3------|
6.--------------------------------|

1.--------------------------------|
2.--------------------------------|
3.--------------7-7-7-7-5-5-5-5-3-
4.-5-7-8-7-5----------------------|
5.-----------8--------------------|
6.--------------------------------|

1.--------------------------------|
2.--------------------------------|
3.-3-3-3-2-2-2-2-0-0-0-0--------2-|
4.-----------------------3--3-5-0-|
5.--------------------------1-3---|
6.--------------------------------|

1.--------------------------------|
2.-/10---10---/8---8---/10---10---|
3.-----7----7----7---7-----7----7-|
4.--------------------------------|
5.--------------------------------|
6.--------------------------------|

1.-8-7h8h7------------------------|
2.---------8-10--/10---10---/8---8
3.-------------------7----7----7--|
4.--------------------------------|
5.--------------------------------|
6.--------------------------------|

1.--------------------|
2.-/10---10-----------|
3.-----7----7---------|
4.------------10-9-7--|
5.--------------------|
6.--------------------|...




No hay comentarios:

Publicar un comentario