.

banners

Tablatura fácil de... Bushido. Hammerfall. (riff principal).


    Encantados estamos en Tablaturas fáciles  de poder disponer por fin de algunas tabs de esta pedazo de banda de Heavy Metal. No será el único tabs que propongamos de HammerFall seguro.
  Un saludo.
  TabsFácil.


  Bushido. Hammerfall.





Guitarra solista.

1.----------------------------------------------------
2.---11-8---11-8---11-8---11-8---10-7---10-7---10-7---
3.--------7------7------7------7------7------7------7-
4.----------------------------------------------------
5.----------------------------------------------------
6.----------------------------------------------------



1.----------------------------------------------------
2.---10-7---------------------------------------------
3.--------7---14-10----14-10----14-10----14-10--------
4.------------------10-------10-------10-------10-----
5.----------------------------------------------------
6.----------------------------------------------------



1.------------------------------------------
2.------------------------------------------
3.---12-10----12-10-----12-10----12-10------
4.---------10-------10--------10-------10---
5.------------------------------------------
6.------------------------------------------. . .


Guitarra rítmica.

1.--------------------------------------------------------
2.--------------------------------------------------------
3.--------------------------------------------------------
4.------------7---------9-------------5--------9----------
5.--5---------5---------7---3---------3--------7---------5
6.--3-----------------------1----------------------------3




     (0:15)                 "Screaming and ...


1.------------------------------------------------------
2.------------------------------------------------------
3.------------------------------------------------------
4.------------------------------------------------------
5.------------------------------------------------------
6.--3-3---3-3-3---3-3---3-3---3-3-3---3-3---1-1---1-1-1-



1.------------------------------------------------------
2.------------------------------------------------------
3.------------------------------------------------------
4.------------------------------------------------------
5.----------------------------3-3---3-3-3---3-3---3-3---
6.--1-1---1-1---1-1-1---1-1-----------------------------



1.------------------------------------------------------
2.------------------------------------------------------
3.------------------------------------------------------
4.------------------------------------------------------
5.--3-3-3---3-3---6-6---6-6-6---6-6---8-8---8-8-8---8-8-
6.-------------------------------------------------. . .


No hay comentarios:

Publicar un comentario en la entrada