.

banners

Acordes y Tabs fácil de... Alone. Alan Walker. Chords and Tabs.


  A primeros de Diciembre nos presentaba "Alone" el DJ y productor noruego Alan Walker, consiguiendo en YouTube millones de visitas en apenas horas...
  En Tabs Fáciles nos gusta versiones y sacar covers de estos temas discotequeros y es por eso, que hoy os dejamos los acordes y la tablatura fácil del tema para que vosotros mismos practiquéis, disfrutéis y hagáis vuestra propia versión.
  Un saludo.
  TabsFácil.




Alone. Alan Walker.


Solm    Re#    La#
Lost in your mind

Rem
I wanna know

Solm            Re#    La#
Am I loosing my mind?

Rem
Never let me go

Solm 
If this night is not forever

 Re#
At least we are together

La#
I know I'm not alone

Rem
I know I'm not alone

Solm
Anywhere, whenever

Re#
Apart but still together

La#
I know I'm not alone

Fa                        Solm   Re#  La#
I know I'm not alone

1.---------------------------------|
2.---------------------------------|
3.--------5h7h5h7----------7-8-7-5-|
4.-5--------------8--5-------------8
5.---5-8---------------5-8---------|
6.---------------------------------|

1.---------------------------------|
2.---------------------------------|
3.-------5h7h5h7-----------3h5h3h5-3
4.-3---3---------8--3---3----------|
5.---5----------------5------------|
6.---------------------------------|

1.---------------------------------|
2.---------------------------------|
3.-------5h7h5h7----8-7----7-8-7-5-7
4.-5-7-8---------8------8----------|
5.---------------------------------|
6.---------------------------------|

1.---------------------------------|
2.-----3---------------------------|
3.-3-5---5h7h5h7-----------3h5h3h5-3
4.---------------8--7-8-10---------|
5.---------------------------------|
6.---------------------------------|


Fa                        Solm   Re#  La#
I know I'm not alone

Fa                        Solm   Re#  La#
I know I'm not alone

1.---------------------------------|
2.---------------------------------|
3.--------5h7h5h7----------7-8-7-5-|
4.-5--------------8--5-------------8
5.---5-8---------------5-8---------|
6.---------------------------------|

1.---------------------------------|
2.---------------------------------|
3.-------5h7h5h7-----------3h5h3h5-3
4.-3---3---------8--3---3----------|
5.---5----------------5------------|
6.---------------------------------|

1.---------------------------------|
2.---------------------------------|
3.-------5h7h5h7----8-7----7-8-7-5-7
4.-5-7-8---------8------8----------|
5.---------------------------------|
6.---------------------------------|

1.---------------------------------|
2.-----3---------------------------|
3.-3-5---5h7h5h7-----------3h5h3h5-3
4.---------------8--7-8-10---------|
5.---------------------------------|
6.---------------------------------|



Solm        Re#    La#
Unconscious mind

Re#
!'m wide awake

Solm           Re#     La#
Wanna feel one last time

Re#
Take my pain away

Solm 
If this night is not forever

 Re#
At least we are together

La#
I know I'm not alone

Rem
I know I'm not alone...




No hay comentarios:

Publicar un comentario en la entrada