.

banners

Acordes y Tablatura fácil de... The Last of us II. Through the valley.


  Una canción original de Shawn James "Through the valley" han escogido para presentar la segunda parte del exitoso juego "The last of us" y del que ya se han hecho eco numerosos seguidores del videojuego expectantes por conocer de que tratará o que contará la segunda parte, de la que tu también puedes enterarte pinchando aquí.
  En Tablaturas fáciles te queremos dejar un momento en tablatura y unos acordes por si te animas a tocar esta bonita y sencilla canción de letra que, le va  que ni pintada al juego.
  Un saludo.
  TabsFácil.





Through the valley. The last of us II.


1.-----------------------------------------|
2.-----4---------4----------4----------4---|
3.-------4---------4----------4----------4-|
4.---6----6----6-----6---6------6----6-----6
5.-----------------------------------------|
6.-4---------4---------4-----------4-------|



I walk...                   

1.-----------------------------------------|
2.-----4---------4----------5----------5---|
3.-------4---------4----------6----------6-|
4.---6----6----6-----6---6------6----6-----6
5.-----------------------------------------|
6.-4---------4---------4-----------4-------|



1.----------------------------------------|
2.-----4---------4------------------------|
3.-------4---------4-------8-----------8--|
4.---6-----6---6-----6---8---8-------8---8|
5.---------------------6-------6--6-------6
6.-4---------4----------------------------|


1.-----------------------------------------|
2.-----4---------4----------5----------5---|
3.-------4---------4----------6----------6-|
4.---6----6----6-----6---6------6----6-----6
5.-----------------------------------------|
6.-4---------4---------4-----------4-------|
  


1.----------------------------------------|
2.------------------5-------------4-------|
3.-8---8--------6-----6------4------4---4-|
4.---8---8--------6-----6-------6-----6---|
5.-6-------6----4-------------------------|
6.---------------------------4----------4-|



G#m
Surely goodness and mercy will follow me, 
        C#m
all the days of my life,  
           G#m                           D#
and I will dwell, on this earth, forever more


      G#m
Said I walk beside still waters and they
C#m
restore my soul 
              D#                      C#m
 but I can't walk on the path of the right, 
            G#m
because I'm wrong


            D#                      C#m
No, I can't walk on the path of the right, 
            G#m
because I'm wrong




No hay comentarios:

Publicar un comentario en la entrada