.

banners

Tabs fácil de...Touch in the night. Battle beast.



   Con un potente sonido "discotequero" nos presentaba Battle beast su último disco "Unholy savior" que salía en el 2015  a nivel mundial.
 "Touch in the night" se llama el tema y cómo hiciera con "Madness", otro de los adelantos del disco, he querido dejar unos momentos en tablatura de ambos temas.
  Os dejo el riff acompañamiento que espero que os guste como ha quedado y lo utilicéis para divertiros.
   Un saludo.
   TabsFácil.





Touch in the night. Battle beast.


(0:46)
1.-----------------------------------------------
2.-----------------------------------------------
3.-----------------------------------------------
4.--9---7-------2---5---7-------2---5---7------7-
5.--7---5---2---0---3---5---2---0---3---5-5-5--5-
6.----------0---------------0--------------------

1.-----------------------------------------------
2.-----------------------------------------------
3.----------5---7--------------------------------
4.------2---3---5------2---5---------------------
5.--2---0----------2---0---3--------------------2
6.--0--------------0---------3-2-0-0-0-0--0-0-0-0...




No hay comentarios:

Publicar un comentario