.

banners

Tabs fácil de...The heart of steel MMIXV. Manowar.



   Desde hace ya unos años, se ha puesto de moda reeditar discos con motivo de los aniversarios de grandes bandas. Manowar lo volvieron a grabar después de tantos años. A mí personalmente me hubiera gustado escuchar disco nuevo pero he de reconocer que es uno de mis grupos y disco preferido, por lo que no deja de ser interesante.
  De todos modos aquí os dejo un momento en tablatura de la intro acústica (sólo un pedacito) de todo un himno de la banda, bueno este disco está lleno de himnos. Espero que os guste. 
 Un saludo.
 TabsFácil.







The heart of Steel MMXIV. Manowar. 

1.-----0---------------------0----------------------
2.-----1---1-0-1-0-----------1-----1-0---0-1----0-1-
3.-----2-----------2---------2---------2-----2------
4.---2---2----------------2------2------------------
5.-0--------------------0---------------------------
6.--------------------0-----------------------------

1.------3-------------------0---------------------0-
2.------3---0-1-0-----------1----1-0-1-0----------1-
3.------0-0-------2-0-------2------------2--------2-
4.-----------------------2-----2----------------2---
5.---2-----------------0----------------------0-----
6.-3----------------------------------------0-------

1.-----------------------0------------------------3-
2.----1-0-1-0------------1----1-0---0-1---0-1-----3-
3.------------2----------2--------2-----2---------0-
4.-2------------------2-----2-----------------------
5.------------------0---------------------------2---
6.----------------0---------------------------3-----

1.-----------------
2.-----0-1-0-------
3.---0-------2-0---
4.-----------------
5.-----------------


6.------------. . .




No hay comentarios:

Publicar un comentario en la entrada