.

banners

Tabs fácil de...The black swordsman. Battle beast.





  "The black swordsman" el octavo corte del último plástico de Battle beast, que hace de  intro en acústico para "Hero's quest,"  el siguiente tema. Esa es la tablatura que os presento hoy y que espero que os guste y disfrutéis tocándola como yo lo he hecho.
  Un saludo.
  TabsFácil.




The black swordsman. Battle beast.


1.-----------------------------------------
2.-----------------------------------------
3.---------5---7--------2---0--------5---7-
4.-------7---7--------3---3--------7---7---
5.-----7------------3------------7---------
6.---5------------1------------5-----------

                       
 (0:07)Guitarra 2.
1.----------3       1.----------------------
2.----------3       2.---10-12-13(15((13)-12
3.----------4       3.----------------------
4.-------3--5       4.----------------------
5.-----3----5       5.----------------------
6.---1------3       6.----------------------

1.---------------------------------------3--2-
2.---------------------------------------3--2-
3.---------5---7--------2---0--------4---5--4-
4.-------7---7--------3---3--------5-----5--4-
5.-----7------------3------------5-------3--2-
6.---5------------1------------3--------------

(0:21)
1.-----------------------------------------
2.-----------------------------------------
3.---------5---7--------2---0--------5---7-
4.-------7---7--------3---3--------7---7---
5.-----7------------3------------7---------
6.---5------------1------------5-----------

                       
(0:25) Guitarra 2.
1.----------3       1.---------------------------
2.----------3       2.-20(22)-20(22)(20)-17-20(22)
3.----------4       3.---------------------------
4.-------3--5       4.---------------------------
5.-----3----5       5.---------------------------
6.---1------3       6.---------------------------

1.---------------------------------------
2.---------------------------------------
3.---------5---7--------2---0--------4---
4.-------7---7--------3---3--------5-----
5.-----7------------3------------5-------
6.---5------------1------------3---------


1.------------------------------------------
2.--------6---5---------5---3---------------
3.------7---7---------5---5-----------2---0-
4.----7-------------5---------------3---3---
5.---5------------3---------------3---------
6.------------------------------1-----------

1.-------------------------3-
2.-------------------------3-
3.---------5---7-----------4-
4.-------7---7--------3----5-
5.-----7------------3------5-
6.---5------------1--------3-

1.---------------------------------------3--2-
2.---------------------------------------3--2-
3.---------5---7--------2---0--------4---5--4-
4.-------7---7--------3---3--------5-----5--4-
5.-----7------------3------------5-------3--2-
6.---5------------1------------3--------------

1.---0---
2.---1---
3.---2---
4.---2---
5.---0---
6.-------

El arpegio de La menor:

1.----------------
2.----------------
3.---------5---7--
4.-------7---7----
5.-----7----------
6.---5------------


lo puedes sustituir por éste otro:

1.----------------
2.---------1---3--
3.-------2---2----
4.-----2----------
5.---0------------
6.----------------




No hay comentarios:

Publicar un comentario