.

banners

Tabs fácil de...Re-inventing the future. Operation: mindcrime.




  El excantante de Queensrÿche, Geoff Tate tiene banda propia, se llama Operation: Mindcrime, de qué nos sonará? y tiene ya varios discos en el mercado. El primero llevaba por nombre "The key" y parece ser que es la primera parte de una trilogía, vamos lo que debió ser su afamado disco y no fué, esto último es una reflexión mía.
  Hoy, en Tablaturas fáciles "Re-inventing the future" del que como siempre, os quiero dejar unos momentos en tablatura que, como siempre repito, espero que os guste y disfrutéis.
    Un saludo.
    TabsFácil.






                                     

Re-inventing the future. Operation: mind crime.

1.----------------------------------
2.----------------------------------
3.--------------------------2-------
4.--2-2--4-5--5-4--2-2--4-5---5-4-5-
5.----------------------------------
6.----------------------------------

1.--------------------------

2.--------------------------
3.-------------------2--4-4-
4.--2-2--4-5--5-4-2--0--2-2-
5.--------------------------
6.--------------------------

1.----------------------------------

2.----------------------------------
3.--------------------------2-------
4.--2-2--4-5--5-4--2-2--4-5---5-4-5-
5.----------------------------------
6.----------------------------------

1.--------------------------

2.--------------------------
3.-------------------2--4-4-
4.--2-2--4-5--5-4-2--0--2-2-
5.--------------------------
6.--------------------------

1.----------------------------------

2.----------------------------------
3.--------------------------2-------
4.--2-2--4-5--5-4--2-2--4-5---5-4-5-
5.----------------------------------
6.----------------------------------

1.-----------------------------

2.-----------------------------
3.-------------------2--4-4----
4.--2-2--4-5--5-4-2--0--2-2----
5.---------------------------2-
6.---------------------------0-...


(1:11)

1.---------------------------
2.---------------------------
3.---------------------------
4.---9-9--10--7--7-7--9-9--9-
5.---------------------------
6.---------------------------

1.---------------------------

2.---------------------------
3.---------------------------
4.---9-9--10--7--7-7--9-9--9-
5.---------------------------
6.------------------------...






No hay comentarios:

Publicar un comentario en la entrada