.

banners

Tabs fácil de...Neon sirens. Timo Tolkki's Avalon.




   Gran guitarrista este Timo Tolkki con un montón de buenos discos en su etapa de Stratovarius, como productor en tantos y tantos otros y en este proyecto Timo Tolkki's Avalon del cual ya van dos partes, no sé si habrá alguna más..
   Por si fuera poco tanto en su primera parte como en esta segunda se rodeó de un gran elenco de personalidades conocidas dentro del metal mundial.
  Aquí tenéis unos  momentos en tablatura de "Neon sirens" por que me parece muy interesante a nivel guitarrístico y de aprendizaje.
    Un saludo.
    TabsFácil.





Neon sirens. Timo Tolkki's Avalon.


   Guitarra 2.
1.-----------------------------------------
2.-----------8-8---------------------------
3.-------7-7-----7-7-----5-5--7-7----------
4.---5-5-------------5-5----------8-8--5-5-
5.-----------------------------------------
6.-----------------------------------------

1.--------------------------------------
2.-------8-8----------------------------
3.---7-7-----7-7--8-8--5-5--7-7---------
4.------------------------------8-7-5-5-
5.--------------------------------------
6.--------------------------------------...

  Guitarra 1.
1.---------------------------------------
2.---------------------------------------
3.---------------------------------------
4.---------------------------------------
5.---5---5---5-5-5/-6-5-3-5-5-5/-8-6-3-5-
6.---3---3---3-3-3/-4-3-1-3-3-3/-6-4-1-3-...





No hay comentarios:

Publicar un comentario en la entrada