.

banners

Tabs fácil de...Enshrined in my memory. Timo Tolkki's Avalon.



  Con el nombre de "The land of the new hope"  Timo Tolkki presentaba hace ya unos años "Timo Tolkki's Avalon"  un proyecto en solitario aunque rodeado de un gran elenco de artistas de fama mundial.
  Hoy en Tablaturas fáciles os queremos dejar unos momentos en tablatura del tema con el que presentaron el proyecto, "Enshrined in my memory" interpretado por la vocalista Elize Ryd.
   Un saludo.
   TabsFácil.






Enshrined in my memory. Timo tolkki’s Avalon.




1.--------------------------------------------------
2.-/10---8-8---8/7----------------------------------
3.-----------------9-9---/14---12-12---12/11--------
4.--------------------------------------------14-14-
5.--------------------------------------------------
6.--------------------------------------------------




1.--------------------------------------------------
2.-/10---8-8---7-7----7-8-7----/10---8-8------------
3.------------------9-------9-------------/12--11-11
4.--------------------------------------------------
5.--------------------------------------------------
6.--------------------------------------------------





1.--------------------------------------------------
2.-/10---8-8---8/7----------------------------------
3.-----------------9-9---/14---12-12---12/11--------
4.--------------------------------------------14-14-
5.--------------------------------------------------
6.--------------------------------------------------




1.----------------------------------------------------
2.-/10---8-8--7-7---7-8-7---/10---8-8-----------------
3.----------------9-------9-----------/12--11-11-/11-9
4.----------------------------------------------------
5.----------------------------------------------------
6.----------------------------------------------------



                        (1:11) estribillo

1.-0---0---0---0---0---------------------------------
2.-0---0---0---0---0---------------------------------
3.-0---0---0---0---0---------------------------------
4.-9---9---5---5---4-----4-4-4-------5---2---5---5-4-
5.-7---7---3---3---2-----2-2-2---2---3---0---7---3-2-
6.-------------------------------0-------------------



1.-----------------
2.-----------------
3.-----------------
4.-------5---2---7-
5.---2---3---0---5-
6.---0-------------




Solo (incompleto) 2:39

1.---------------------------------------------------
2.---------------------------------------------------
3.---------------------------------9-11-12-9---11-12-
4.---------------9-11-12-9---11-12-------------------
5.-¡¡¡¡¡-9-10-12-------------------------------------
6.---------------------------------------------------


 (¡¡¡¡¡, no se muy bien como lo hace lo dejo en vuestras
manos)


1.----------------------------------------------------
2.-10-12-14---14h12h10/9------------------------------
3.------------------------9---6---6-------------------
4.----------------------------------9h7h6---6---------
5.---------------------------------------------7---/9-
6.----------------------------------------------------



No hay comentarios:

Publicar un comentario en la entrada