.

banners

Tabs fácil de...El gringo. Manowar


    

  Una web de tablaturas sin tabs de Manowar,  no seria lo mismo. O al menos así lo vemos desde www.tabsfacil.es, y por eso os queremos dejar unos momentos del tema  "El gringo", un tema muy Manowar sin duda alguna. Disfrutadlo.
  Un saludo.
  TabsFácil.





El gringo. Manowar


Guitarra 1
1.------------------------
2.------------------------
3.------------------------
4.--------------2-------4-
5.----------2---0---5---2-
6.---12-/---0-------3-----


Guitarra 2
1.----------7-5--------------5-7-5---
2.---5-7-8------7-----5-7-8--------7-
3.----------------7------------------
4.-----------------------------------
5.-----------------------------------
6.-----------------------------------


(1:31)Guitarra 1

1.----------------------------------------------
2.----------------------------------------------
3.----------------------------------------------
4.-5---4-------4------5-----------4----5--------
5.-3---2---5---2------3---5---5---2----3---5---2
6.---------3--------------5---3------------5---0


1.-----------------------------------------------
2.-----------------------------------------------
3.-----------------------------------------------
4.----------------------7-9-----------------7-9--
5.----------------------5-7-----------------5-7--
6.---0-0-0-muchas veces-----0-0-0-much.vec.------


1.--------------------------------------------------
2.--------------------------------------------------
3.--------------------------------------------------
4.-7-9---7-9---7-9---7-9---7-9-9-----------5--------
5.-5-7---5-7---5-7---5-7---5-7-7---5---7---3---5---2
6.---------------------------------3---5-------5---0


(2:15)Guitarra 2

1.---------------------------------------------------
2.---------------------------(AH)--------------------
3.----------4-----4-5---4-5---7----------4-5---4-5-7-
4.-5-4-5-7----5-7-----7-----------7-5-7------7-------
5.---------------------------------------------------
6.---------------------------------------------------


1.--------------------------------------------------
2.--------(AH)-----------------5-----5-7-8----------
3.-4-5-7---9---4---4-5-7-4-5-7---5-7---------5-4-5-7
4.---------------7----------------------------------
5.--------------------------------------------------
6.--------------------------------------------------

1.-----------------5-----------
2.---5-------5-7-8---8-7-5---5-
3.-----7-5-7---------------7---
4.-----------------------------
5.-----------------------------
6.-----------------------------...



No hay comentarios:

Publicar un comentario