.

banners

Tabs fácil de...Dangerous. Within temptation.

within temptation_tabs_faciles


    Espectacular como sonaba el tema elegido como el adelanto del último trabajo de Within temptation. Un temazo, guitarras cañeras, voces tremendas, estribillo pegadizo. Todo lo que se podía esperar de lo que luego es, al menos para mi gusto, un muy buen disco.
  Os dejo unos momentos en tablatura de los riffs intro del tema que, espero como siempre que os guste y disfrutéis.
   Un saludo.
   TabsFácil.







Dangerous. Within temtation

1.-------6-8-10-----3-5-6-----6-8-10-----6-5---
2.---8-8--------6-6-------8-8--------6-6-----6-
3.---------------------------------------------
4.---------------------------------------------
5.---------------------------------------------
6.---------------------------------------------

1.-------6-8-10-----3-5-6-----6-8-10-----6-5---
2.---8-8--------6-6-------8-8--------6-6-----6-
3.---------------------------------------------
4.---------------------------------------------
5.---------------------------------------------
6.---------------------------------------------

Guitarra 1. (rítmica).Estos son los acordes
dale tu el ritmo que marca la canción.
1.----------------------------------------------
2.----------------------------------------------
3.----------------------------------------------
4.---12------------8---------------10-----------
5.---10------------6---------------8------------
6.----------------------------------------------

Guitarra 2
1.----------------------------------------------
2.----------------------------------------------
3.----------------------------------------------
4.---8h5---7-8h5------------------5-7h3---5-7h3-
5.---------------8-10h6---8-10h6----------------
6.----------------------------------------------

Guitarra 1. (rítmica).
1.--------------------
2.--------------------
3.--------------------
4.---12---------------
5.---10---------------
6.--------------------

Guitarra 2
1.--------------------
2.--------------------
3.--------------------
4.---7-8h5----7-8h5---
5.--------------------
6.--------------------


Estribillo. Dale el ritmo que te pide la canción.
Estas serian las notas.
1.--------------------------------------------------
2.--------------------------------------------------
3.--------------------------------------------------
4.--------------------------------------------------
5.---10---8---6-------8---10---8---6-------8---6---8
6.----------------6--------------------6------------

1.--------------------------------------
2.--------------------------------------
3.--------------------------------------
4.--------------------------------------
5.---10---8---6---8---10---6---8---10---
6.--------------------------------------



No hay comentarios:

Publicar un comentario