.

banners

Tabs fácil de...Army of the night. Powerwolf.


 Powerwolf, una banda que causa furor entre las masas metaleras, por sus temáticas e indumentarias y como no, por su heavy metal contundente y pegadizo.
   No podía por tanto faltar alguna tablatura de la banda en tu web de tablaturas para guitarra, y es por eso que hoy os presento unos momentos en tablatura de "Army of the night" un temazo que, espero que disfrutéis.
   Un saludo.
   TabsFácil.





Army of the night. Powerwolf.

(0:30)
1.-----------------------------------
2.-----------------------------------
3.------4-4----------------4--1-1----
4.---6--2-2--1-2-4-2-1--6--2-------4-
5.---4------------------4------------
6.-----------------------------------

1.-----------------------------------

2.-----------------------------------
3.--1-2-1---------4-4----------------
4.--------4-2--6--2-2--1-2-4-2-1---1-
5.-------------4-----------------2---
6.-----------------------------------

1.----------

2.----------
3.------2-1-
4.--2-4-----
5.----------
6.----------...

(2:12)

1.-----------------------------------
2.---9---9---9---9--------------9-11-
3.-----9---9---9---11-11--11-11------
4.-----------------------------------
5.-----------------------------------
6.-----------------------------------

1.-----------------------------------

2.--12----12----12----12-----------11
3.-----13----13----13----15-15--15---
4.-----------------------------------
5.-----------------------------------
6.-----------------------------------

1.-----------------------------------

2.--12-11----------9---9---9---------
3.--------11-13--9---9---9---11-11---
4.-----------------------------------
5.-----------------------------------
6.-----------------------------------

1.-----------------------------------

2.--------9-11-12----12----12----12--
3.--11-11---------13----13----13-----
4.-----------------------------------
5.-----------------------------------
6.-----------------------------------

1.----------------------------4-4-4-4

2.-----14-14-14-14--16-16-16---------
3.--13-------------------------------
4.-----------------------------------
5.-----------------------------------
6.-----------------------------------

1.--4--4-6-7-6-4-------

2.---------------7-9---
3.-------------------8-
4.---------------------
5.---------------------
6.---------------------...


No hay comentarios:

Publicar un comentario