.

banners

Tabs fácil de... Spit out the bone. Metallica.



   Ya está disponible el nuevo trabajo de Metallica y tal y como prometieron han editado un video clip para cada uno de los temas, además para los que no pudieron esperar más, el disco se filtró por la red unos días antes de su salida...
   En tablaturas fáciles te queremos dejar unos momentos en tablatura del tema que cierra el plástico "Spit out the bone" para que disfrutéis con estos grandes del metal mundial.
   Metallica en Tabsfacil.es.
   Un saludo.
   TabsFácil.






Spit out the bone. Metallica.

1.-------------------------|
2.-------------------------|
3.-------------------------|
4.-------------------------|
5.-------------------------|
6.-0-0-0-0-0-0-0-0-0-0-2-3-|

1.-------------------------|
2.-------------------------|
3.-------------------------|
4.-------------------------|
5.-------------------------|
6.-0-0-0-0-0-0-0-0-0-0-3-5-|

1.-------------------------|
2.-------------------------|
3.-------------------------|
4.-------------------------|
5.-------------------------|
6.-0-0-0-0-0-0-0-0-0-0-2-3-|

1.--------------------|
2.--------------------|
3.--------------------|
4.--------------------|
5.--------------------|
6.-0-0-0-0-2-3--2-3-5-|...


(0:40)

1.-----------------------------|
2.-----------------------------|
3.-----------------------------|
4.-5----4---4-5--5---4---4-5-7-|
5.---7----5--------7---5-------|
6.-----------------------------|

1.-----------------------------|
2.-----------------------------|
3.-----------------------------|
4.-5----4---4-5--5---4---------|
5.---7----5--------7---5--4-5-7|
6.------------------------2-3-5|

1.---------------------|
2.---------------------|
3.---------------------|
4.---------------------|
5.-4-5-7-8-7--5-4-3-2--|
6.-2-3-5-6-5--3-2-1-0--|...


(1:08)

1.-------------------------------|
2.-------------------------------|
3.-------------------------------|
4.---------------4---------------|
5.-4-5-7--4-5-7--2-2-2-2-2-2-2-2-
6.-2-3-5--2-3-5------------------|

1.-------------------------------|
2.-------------------------------|
3.-------------------------------|
4.-------7-4---------------------|
5.-2-2-2-5-2-2-2-2-2-2-2-2-2-2-2-|
6.-------------------------------|

1.-------------------------------|
2.-------------------------------|
3.-------------------------------|
4.-7-----------------------7-----|
5.-5-5---------------------5-5---|
6.---3-3-3-3-3-3-3-3-3-3-3---3---|

1.-------------------------------|
2.-------------------------------|
3.-------------------------------|
4.---------------------7-7--4----|
5.---------------------5-5--2----|
6.-3-3-3-3-3-3-3-3-3-3-----------|...


(2:59)

1.-------------------------------|
2.-------------------------------|
3.-------------------------------|
4.--------------5---5-7-8-7-5-8-7
5.-5/7--7-7-7-7---7--------------|
6.-------------------------------|

1.-------------------------------|
2.-------------------------------|
3.-------------------------------|
4.-5-7-5---------------5(6)------|
5.--------5/7--7-7-7-7------7-5-7
6.-------------------------------|...


(3:58)

1.-------------------------------|
2.-------------------------------|
3.-2/4-4-------------------------|
4.-------5--5-4--4-2--4h2h0--2-4-|
5.-------------------------------|
6.-------------------------------|

1.--------------------|
2.--------------------|
3.--------------------|
4.-/5-4-2-4-2---2-----|
5.------------5---5---|
6.--------------------|...



No hay comentarios:

Publicar un comentario en la entrada