.

banners

Tabs Fácil de... Enter the metal world. Battle Beast


     Battle Beast, una de esas bandas finlandesas con frontman femenina que se ha ido ganando un hueco en el panorama metal europeo, gracias a la fuerza y melodía de sus guitarras y sus voces...
  Hoy en Tablaturas fáciles os queremos dejar unos momentos en tablatura, en concreto del tema "Enter the metal world."
  Un saludo.
  TabsFácil.


Enter the metal world. Battle Beast.


1.------------------------------------
2.------------------------------------
3.------------------------------------
4.-------------1-------------------3-1
5.---1-1-3-1-3---3-1-3---1-1-3-1-3----
6.------------------------------------  vibrato

1.----------------------------------------
2.----------------------------------------
3.----------------------------------------
4.-------------1--------------------------
5.---1-1-3-1-3---3-1-3---1-1-3-1-3---6---8
6.-----------------------------------4---6

1.--------------------------------------
2.--------------------------------------
3.---------------------------------5---3
4.-------------1-------------------3---1
5.---1-1-3-1-3---3-1-3---1-1-3-1-3------
6.--------------------------------------


1.------------------------------------------------
2.------------------------------------------------
3.------------------------------------------------
4.-------------1-----------------------------5----
5.---1-1-3-1-3---3-1-3---1-1-3-1-3---6---8---3----
6.-----------------------------------4---6--------


(0:36)
1.---------------------------------------------
2.-/4-3------A---------------------------------
3.------5-3-(5)--------------------------------
4.---------------------------------------------
5.----------------6-6-6---6-6-6---6-6-6---6-6-6
6.----------------4-4-4---4-4-4---4-4-4---4-4-4

1.----------------------------------------------------
2.----------------------------------------------------
3.---------------------------------------8h7----8h7---
4.-----------------------------------5-------10-----10
5.---8-8-8---8-8-8---8-8-8---8-8-8---3----------------
6.---6-6-6---6-6-6---6-6-6---6-6-6--------------------




1.---------------------------------------------------
2.---------------------------------------------------
3.-7-8-8h7----8-8h7----------------------------------
4.---------10-------10-------------------------------
5.----------------------6-6-6---6-6-6---6-6-6---6-6-6
6.----------------------4-4-4---4-4-4---4-4-4---4-4-4

1.---------------------------------------------------
2.---------------------------------------------------
3.---------------------------------------------------
4.---------------------------------------------------
5.---8-8-8---8-8-8---8-8-8---8-8-8---6-6-6---6-6-6---
6.---6-6-6---6-6-6---6-6-6---6-6-6---4-4-4---4-4-4---

1.----------------------------------
2.----------------------------------
3.----------------------------------
4.----------------------------------
5.---6-6-6---6-6-6---8-8-8---8-8-8-8
6.---4-4-4---4-4-4---6-6-6---6-6-6-6

(0:55)
1.--------------------------------------------
2.--------------------------------------------
3.--------------------------------------------
4.----------------------------8---------------
5.---10---10---10----8---10---6---10---10---10
6.----8----8----8----6----8--------8----8----8

1.---------------------------------
2.---------------------------------
3.---------------------------------
4.---------------------------10---8
5.---10---10---10---8---10----8---6
6.----8----8----8---6----8---------

1.--------------------------------------------
2.--------------------------------------------
3.--------------------------------------------
4.----------------------------8---------------
5.---10---10---10----8---10---6---10---10---10
6.----8----8----8----6----8--------8----8----8

1.--------------------------------
2.--------------------------------
3.--------------------------------
4.--------------------------------
5.---10---10---10---8---10---6---8
6.----8----8----8---6----8---4---6    repetimos desde 0:55

(1:20)                    (1:44)
1.-------------------   1.-------------------------------
2.---4h3---4h3-------   2.----16-18-20-18-16----------16-
3.-------------5-3-5-   3.-19----------------19-17-19----
4.-------------------   4.-------------------------------
5.-------------------   5.-------------------------------
6.-------------------   6.-------------------------------

1.------------------------
2.-18-20-18-16------------
3.-------------19-17-15-17
4.------------------------
5.------------------------
6.------------------------

(2:02)Solo
1.--------------------------------------------------
2.-------------------------6----------------11-13---
3.-7(8)-5---7(8)-5-----------8-5-10-8-------------12
4.--------8--------8-8/10-------------10-8----------
5.--------------------------------------------------
6.--------------------------------------------------


1.-----------------------------------------------------
2.-----------------------------------------------------
3.-----------------------/8-8h7------------------------
4.-13-12-10-12-10----10---------10-8-10-6-8-5-6-3-5-6-5
5.----------------13-----------------------------------
6.-----------------------------------------------------

1.----------8---------------8---------------8-----
2.--------8---11h8--------8---11h8--------8---11h8
3.-10(12)-----------10(12)---------10(12)---------
4.------------------------------------------------
5.------------------------------------------------
6.------------------------------------------------


1.----------8---------------8h11-----------8-----
2.--------8---11h8--------8--------------8---11h8
3.-10(12)----------10(12)---------10(12)---------
4.-----------------------------------------------
5.-----------------------------------------------
6.-----------------------------------------------

1.---------8---------------15h13h11---------------------
2.-------8---11h8---11(13)----------15-13---------------
3.-10(12)---------------------------------15h13h12------
4.-------------------------------------------------15-13
5.------------------------------------------------------
6.------------------------------------------------------

1.--------------------------------------------------13
2.-----------------------------------------------13---
3.-12h10h8--------10h8h7------10h8h7----------12------
4.---------12-10---------10-8---------10-8-10---------
5.----------------------------------------------------
6.----------------------------------------------------


1.------------------------------16---------------------
2.-15-16-15-13------16-18-20-18----20-18-16-------16-18
3.---------------19-------------------------17-19------
4.-----------------------------------------------------
5.-----------------------------------------------------
6.-----------------------------------------------------


1.-------16-------------
2.-20-18----20-18-16----
3.--------------------17
4.----------------------
5.----------------------
6.---------------------- . . .

No hay comentarios:

Publicar un comentario en la entrada