.

banners

Tabs fácil de... Dance with the dragon. Dark Sarah.


  Con el tema "Dance with the dragon" Dark Sarah nos presentan su nuevo disco "The Puzzle" que lanzaban al mercado internacional el 18 de Noviembre.
  En Tablaturas fáciles os queremos dejar un  momento en tablatura del tema para que disfrutéis y practiquéis.
  Un saludo.
  TabsFácil.





Dance with the dragon. Dark Sarah.

    (3:12)

1.-----------------------------|
2.-----------------------------|
3.-15(17)--15-15(17)--5-5h6h5h-|
4.-----------------------------|
5.-----------------------------|
6.-----------------------------|

1.-----------------------------|
2.-5-5h6h6--8-6h8h6--9-8h9h8---|
3.-----------------------------|
4.-----------------------------|
5.-----------------------------|
6.-----------------------------|

1.--------------/12-12---------|
2.-8(9)--8-6-8----------/11----|
3.-----------------------------|
4.-----------------------------|
5.-----------------------------|
6.-----------------------------|

1.-----------|
2.-/13-13----|
3.--------12-|
4.-----------|
5.-----------|
6.-----------|...





No hay comentarios:

Publicar un comentario en la entrada