.

banners

Tabs fácil de... Am I savage? Metallica.


  Am I savage? otro de los cortes del recién estrenado disco de Metallica que tan buenas críticas está recibiendo por todas partes del mundo, es del que hoy os queremos dejar en tabs fáciles unos momentos para que disfrutéis y no dejéis de practicar con vuestra guitarra.
  Un saludo.
  TabsFácil.







Am I savage? Metallica.


Guitarra 1.

1.----------------------------|
2.----------------------------|
3.-----2---0--------0-----2---|
4.---2---2---2--0-2-----2---2-|
5.--------------------3-------|
6.-0--------------------------|

1.----------------------------|
2.----------------------------|
3.-0--------0------2---0------|
4.----2---0------2---2---2--0-|
5.------2---------------------|
6.-------------0--------------|

1.-------------------------|
2.-------------------------|
3.---0-----2---0--------0--|
4.-2-----2---2---2----0----|
5.-----3------------2------|
6.-------------------------|

1.----------------------------|
2.----------------------------|
3.-----2---0--------0-----2---|
4.---2---2---2--0-2-----2---2-|
5.--------------------3-------|
6.-0--------------------------|

1.----------------------------|
2.----------------------------|
3.-0--------0------2---0------|
4.----2---0------2---2---2--0-|
5.------2---------------------|
6.-------------0--------------|

1.-------------------------|
2.-------------------------|
3.---0-----2---0--------0--|
4.-2-----2---2---2----0----|
5.-----3------------2------|
6.-------------------------|...


Guitarra 2. (0:14)

1.----------------------------|
2.-8h10--8--8--8h10---8--8h10-
3.------------------9---------|
4.----------------------------|
5.----------------------------|
6.----------------------------|

1.----------------------------|
2.-8--8--8h10--11(10)h8--8----|
3.----------------------------|
4.----------------------------|
5.----------------------------|
6.----------------------------|

1.----------------------------|
2.-10(12)-8--------10(12)-8---|
3.-----------12-9------------9
4.----------------------------|
5.----------------------------|
6.----------------------------|

1.----------------------------|
2.------------10(12)-8--------|
3.-/12--9h7h9----------9-/12-9
4.----------------------------|
5.----------------------------|
6.----------------------------|

1.-----------------------|
2.--------12-15-15(17)---|
3.-14(16)----------------|
4.-----------------------|
5.-----------------------|
6.-----------------------|...



No hay comentarios:

Publicar un comentario en la entrada