.

banners

Tablatura fácil de...Voyage of the fallen. Xandria.


  El 31 de Julio del 2015, salía a la luz un nuevo trabajo de la banda Xandria.
"Fire & Ashes" un Ep donde la banda presenta 3 nuevos temas, alguna reprobación de temas antiguos y algun cover.
  "Voyage of the fallen" es uno de esos temas nuevos y el que eligieron para presentar el álbum. De ese tema, os quiero dejar unos momentos en tablatura que espero, como siempre, que os guste y disfrutéis.
   Un saludo.
   TabsFácil.




Voyage of the fallen. Xandria.

1.-------------------------------------
2.-------------------------------------
3.-------------------------------------
4.--5--5-------------------------------
5.--3--3--5-6--3--6--3--3-3--5-5--6-6-7
6.--------3-4--1--4--1-----------------

1.-------------------------------------
2.-------------------------------------
3.--5--5-5--7---7--7-9-10--9-10-12--10-
4.--3--3-3--5--------------------------
5.-------------------------------------
6.-------------------------------------

1.------------------------------------
2.-----10-8------------------------10-
3.--12------10-9-9--9-10-12--10-12----
4.------------------------------------
5.------------------------------------
6.------------------------------------

1.------------------------------------
2.--8-10-11-10-8-------------8-10-----
3.---------------9-10--10-12-------12-
4.------------------------------------
5.------------------------------------
6.------------------------------------

1.--------10-8-----------------8-10--9-
2.--10-11------11-10-11--10-11---------
3.-------------------------------------
4.-------------------------------------
5.-------------------------------------
6.-------------------------------------

1.--10-12-9-10-
2.-------------
3.-------------
4.-------------
5.-------------
6.-------------...

No hay comentarios:

Publicar un comentario