.

banners

Tablatura fácil de...El ritual de las llamas. Débler.


tablaturas_Débler

 Agradable sorpresa me llevé cuando escuché "El ritual de las llamas" perteneciente al disco "Noctem diaboli" de los madrileños Débler,  grupo al que ya le queda poco para presentarnos su próximo trabajo, y del que estamos todos expectantes, tanto por ver su evolución como por la producción de Txus di Fellatio.
   "El ritual de las llamas" un tema,  al estilo que a mí me gusta el metal. Tanto me ha gustado que he querido dejaros un momento en tablatura del tema perteneciente al riff principal. 
  Hoy en Tablaturas fáciles, Débler.
    Saludos.
   TabsFácil.




El ritual de las llamas. Débler.

  (0:14)
1.--------------------------------
2.--------------------------------
3.--------------------------------
4.------4-----2--2-2-2-2--2-2-2-2-
5.---5--2--5--0--0-0-0-0--0-0-0-0-
6.---3-----3----------------------

1.--------------------------------
2.--------------------------------
3.--------------------------------
4.--2-2-2-2--2-2-5-5--5-5-5-5--5-5
5.--0-0-0-0--0-0-3-3--3-3-3-3--3-3
6.--------------------------------


1.-----------------------
2.-----------------------
3.-----------------------
4.---------------4-----2-
5.--5-5--5-5--5--2--5--0-
6.--3-3--3-3--3-----3----...


No hay comentarios:

Publicar un comentario en la entrada