.

banners

Tablatura fácil de... Manicoño. Bürdel King.



    Seguimos desgranando poco a poco en tablaturas fáciles, el reciente trabajo de Bürdel King. En esta ocasión os queremos dejar unos momentos del inicio del tema "Manicoño" segundo corte del disco.
   Bürdel King en Tabs Fáciles.
  Un saludo.
  TabsFácil.





Manicoño. Bürdel King.


1.--------------------------------|
2.-/3-3-2-3--/3-3-2-3-/5--/3-3-2-3
3.--------------------------------|
4.--------------------------------|
5.--------------------------------|
6.--------------------------------|

1.-------------|
2.---4-3-----6-|
3.-5-----3-5---|
4.-------------|
5.-------------|
6.-------------|



Guitarra 1
1.--------------------------------|
2.--------------------------------|
3.--------------------------------|
4.-3------------------------------|
5.-1------------------------------|
6.--------------------------------|


Guitarra 2

1.--------------------------------|
2.-/3-3-2-3--/3-3-2-3-/5--/3-3-2-3
3.--------------------------------|
4.--------------------------------|
5.--------------------------------|
6.--------------------------------|

Guitarra 1

1.-------------|
2.-------------|
3.-------------|
4.-------------|
5.--------3----|
6.--------1----|

Guitarra 2

1.-------------|
2.---4-3-------|
3.-5-----3-5---|
4.-------------|
5.-------------|
6.-------------|

Guitarra 1

1.--------------------------------|
2.--------------------------------|
3.----------------------3---------|
4.-3--------------------1---------|
5.-1------------------------------|
6.--------------------------------|

Guitarra 2

1.--------------------------------|
2.-/3-3-2-3--/3-3-2-3-/5--/3-3-2-3
3.--------------------------------|
4.--------------------------------|
5.--------------------------------|
6.--------------------------------|


1.---------------|
2.---4-3-----6-6-|
3.-5-----3-5-----|
4.---------------|
5.---------------|
6.---------------|

Guitarra 1

1.--------------------------------|
2.--------------------------------|
3.--------------------------------|
4.-------------------3------------|
5.-3-3--5------------1------------|
6.-1-1--3-------------------------|

Guitarra 2

1.--------------------------------|
2.-/3-3-2-3--/3-3-2-3-/5--/3-3-2-3
3.--------------------------------|
4.--------------------------------|
5.--------------------------------|
6.--------------------------------|

1.-------------|
2.---4-3-----6-|
3.-5-----3-5---|
4.-------------|
5.-------------|
6.-------------|

Guitarra 1

1.-------------------------------|
2.-------------------------------|
3.----------------3-------------5
4.---------/5-3-5---5--3-5-3-5-3-|
5.-3-3--5--/5--------------------|
6.-1-1--3------------------------|


1.------------------------------|
2.------------------------------|
3.--------3-----------3-6-5-3---|
4.-/5-3-5---5--3-5--5---------5-|
5.-/5-------------------------5-|
6.------------------------------|...



No hay comentarios:

Publicar un comentario