.

banners

Tablatura fácil de... Dream no more. Metallica.


  Apenas unos dias de la salida a la venta del último disco de Metallica y ya está de Nº 1 en 57 países!! Es increíble la masa de seguidores que mueve, sin duda, una de las grandes bandas de metal de toda la historia, Metallica...
  Aquí en tablaturas fáciles os queremos dejar un momento en tablatura de otro de sus últimos temas, en concreto "Dream no more." 
  Si no os habéis dado cuenta ya, en tabsfacil.es utilizamos poco para nuestros tabs las afinaciones alternativas, tan importantes para muchos estilos sobre todo el metal moderno, no por nada en especial, pero queríamos dejarlo claro.
  Un saludo.
  TabsFácil.





Dream no more. Metallica.


(1:36)

1.--------------------------|
2.--------------------------|
3.-------------2------------|
4.-------------0------------|
5.-6-6-6----------5-8-5-8-5-|
6.-4-4-4--3-1---------------|

1.--------------------------|
2.--------------------------|
3.--------------------------|
4.-5-5---5-6-6--------------|
5.-----5-------//--5-8-5-8--|
6.--------------------------|

1.--------------------------|
2.--------------------------|
3.--------------------------|
4.---5-5---5-6-6------------|
5.-5-----5--------5-8-5-8-5-|
6.--------------------------|

1.--------------------------|
2.--------------------------|
3.--------------------------|
4.-5-5---5-6-6------------5-5
5.-----5--------5-8-5-8-5---|
6.--------------------------|

1.------------------------------|
2.------------------------------|
3.----------------2------3-2----|
4.---5-6-6--------0------1-0-0-0
5.-5---------5-3-----5-3--------|
6.---------/-3-1-----3-1--------|...



No hay comentarios:

Publicar un comentario