.

banners

Tablatura de...Madness. Battle beast.


  Cómo pasa el tiempo, parece que era ayer cuando descubría la banda gracias al último, (ahora penúltimo) trabajo de Battle beast y la incluía en mi blog. 
  Y ahora volver a publicar tabs de su último trabajo me resulta hasta raro... "Madnes"  es el que he elegido para dejaros unos momentos en tablatura.
  Espero que os guste.
  Un saludo.
  TabsFácil.



Madness. Battle beast.


(Guitarra 1 - Guitarra2)
1.-----------------------------------
2.-----------------------------------
3.-----------------------------------
4.-----------------------------------
5.------------------------------4--6-
6.--4-4-4-4-4-4-4--4-4-4-4-4-4--2--4-

1.--------------------
2.--------------------
3.--------------------
4.---------------4----
5.---------------2--6-
6.--4-4-4-4-4-4-----4-

1.------------------------------------
2.------------------------------------
3.------------------------------------
4.-------------------------------4----
5.-------------------------4--6--2--4-
6.--4-4-4-4-4-4--4-4-4-4---2--4-----2-

1.--------------------------------------
2.--------------------------------------
3.--------------------------------------
4.---------------------------------4----
5.---------------4--6--------------2--6-
6.--4-4-4-4-4-4--2--4--4-4-4-4-4-4----4-

1.------------------------------------
2.------------------------------------
3.------------------------------------
4.----------------------------6--4----
5.-------------------------6--4--2--6-
6.--4-4-4-4-4-4--4-4-4-4---4--------4-


1.---------------------------------------
2.---------------------------------------
3.----------------------------------4----
4.---------------4--6---------------2--6-
5.--4-4-4-4-4-4--2--4--4-4-4-4-4-4-----4-
6.---------------------------------------

1.------------------------------------
2.------------------------------------
3.-------------------------------4----
4.-------------------------4--6--2--4-
5.--4-4-4-4-4-4--4-4-4-4---2--4-----2-
6.------------------------------------

1.--------------------------------------
2.--------------------------------------
3.--------------------------------------
4.---------------------------------4----
5.---------------4--6--------------2--6-
6.--4-4-4-4-4-4--2--4--4-4-4-4-4-4----4-

1.------------------------------------
2.------------------------------------
3.------------------------------------
4.----------------------------6--4----
5.-------------------------6--4--2--6-
6.--4-4-4-4-4-4--4-4-4-4---4--------4-
                                                       
1.-----------------------------------------
2.-----------------------------------------
3.-----------------------------------------
4.-----------------------------------------
5.----------------------6-6-6-6-6-6-6-6-6--
6.--4-4-4-4-4-4-4-4-4-4--------------------

..."My name is Madnes..."
1.------------------------------------------
2.------------------------------------------
3.------------------------------------------
4.-------4--3-------------------9------6--4-
5.--2----2--1--6--4--2----------7---6--4--2-
6.--0----------4--2--0--0-0-0-0-----4-----...



No hay comentarios:

Publicar un comentario