Ir al contenido principal

Acordes de... Cenizas en la eternidad. Melendi.



 "Cenizas en la eternidad" tiene una letra curiosa para mi gusto porque es una carta a sus seguidores, una carta en la que da explicaciones de qué son ellos para él y de por qué ha cambiado tanto su música...
  Explicaciones que por otro lado, tarde o temprano tienen que dar todos los grupos y solistas que en algún momento cambian de rumbo en su estilo musical, aunque no suelen hacerlo con un tema. Sea como fuere, ahí os dejo los acordes de "Cenizas en la eternidad" para que la disfrutéis.
  Un saludo.
  TabsFáciles.





Cenizas en la eternidad. Melendi.

La
Hace tiempo que comprendo 
Mi
Que este corazón suicida 

Fa#m
Solo con vuestras gargantas 

Re
Va curando sus heridas 

La
Hace tiempo que en mis noches 

Mi
Cuando rozo la locura 

Fa#m
Y al mirarme en el espejo 

Re
Solamente veo dudas 

La
Sois vosotros en quien pienso 

Mi
Y no quiero defraudados 

Fa#m
Aunque sé que no os gusta 

Re
Esto que voy a contaros 

La
Yo ya no puedo hacer rumba 

Mi
Porque mi vida ha cambiado 

Fa#m
Y si me tocan las palmas 

Re
Me da miedo mi pasado 
Sim
Pero si hay un sentimiento 

Fa#m
Que en mi pecho crece y crece 

La
Que no lo despeina el viento 

Mi
Y que nunca se envejece 

Sim
Que no pierde la esperanza 

Fa#m
Y que explota en mi garganta 

Mi
A viva voz 
La
Yo quiero ser guerrero 

                  Mi
Como lo sois vosotros 

Fa#m
Dejándome los huevos 


En cada canción 

       La
Cantando como locos 


Levantemos los mecheros 


Celebrando lo vivido 

Mi
Y cojamos nuestras manos 


Recordando los caídos 

Fa#m
No importa el tiempo no es real 


Lo que un día fuimos quedara 

Re
Grabado en las cenizas de la eternidad 
              La
Quiero ser guerrero 

               Mi
Quiero ser guerrero 

            Fa#m
Quiero ser guerrero 

              Re
Quiero ser guerrero, guerrero, guerrero ...








Comentarios

LO MÁS BUSCADO EN TABSFACIL.ES:

Tablatura fácil de... Como el viento. Saratoga.

El 13 de Mayo es la fecha elegida para la publicación de lo que será el regreso de la banda Saratoga, de cuyo trabajo ya nos adelantan "Como el viento," un tema que del que yo os quiero dejar un momento en tablaturas fáciles del inicio de la canción con el que espero que disfrutéis como yo lo he hecho.
  Un saludo.
  TabsFácil.





Como el viento. Saratoga.

1.-/6-4-----4-4-6-7-6----4-4-6-7-6-|
2.------7-4------------4-----------|
3.---------------------------------|
4.---------------------------------|
5.---------------------------------|
6.---------------------------------|

1.-4-------------------4---/14-13--|
2.---7-6-4-2---7-------------------|
3.-----------4----4-6--------------|
4.---------------------------------|
5.---------------------------------|
6.---------------------------------|

1.----------------14-16-14---------|
2.-16------/18-18-------------/18--|
3.----15-------------------15------|
4.---------------------------------|
5.---------------------------------|
6.----------------------…

Acordes de... Despierta. Bunbury.

En tablaturas fáciles rescatamos otro disco del 2013. En este caso se trata de "Palosanto" de Bunbury. Y de este disco extraemos "Despierta" del que os dejo unos momentos y sus acordes correspondientes.
  Un saludo.
Tabsfácil.










Despierta. Bunbury 
1.----------------------------------------------- 2.-----------13h15--------13h15----------13h15--- 3.---12h14----------12h14---------12h14---------- 4.----------------------------------------------- 5.----------------------------------------------- 6.-----------------------------------------------
1.----------------15h17--------- 2.---------13h15--------13h15--- 3.---12h14---------------------- 4.------------------------------ 5.------------------------------ 6.------------------------------


 Rem                       Sol    Despierta, todo ha cambiado

Fa             Sol            Rem Nada es como habíamos imaginado.

Rem                        Sol   Esperas, a que alguien mueva,

Fa                 Sol         Rem Pase lo que …

Aprende a tocar...Constelación Alpha D.C.I. Mägo de Oz.

Todas las críticas que he leído del disco coincidían en que "Constelación D.C.I." era  la canción más "rara" que había en el nuevo trabajo de la banda, din dejar de ser un buen tema.
  En OZTABLATURAS puedes aprender a tocarla desde ya.
  Un saludo.
  OzTablaturas.

Constelación Alpha D.C.I.







AC/DC... En 5 Riffs.





     Intentar resumir la carrera de AC/DC en 6 riffs viene a ser lo mismo que querer guardar en una botella el mar, totalmente imposible. No obstante, y con la única intención de animarte a que cojas la guitarra y pases un buen rato mientras aprendes, si no sabías tocarlos, o recordando algunos de sus míticos e inolvidables himnos del rock n' roll, desde GUITARRISTAS 21 te dejo una pequeña lista con esos 5 + 1 riffs que cautivaron y aún hoy lo hacen a millones y millones de personas en todo el mundo.

AC/DC.
AC/DC es un grupo de hard rock formado en 1973 en Australia, por los hermanos de origen escocés, Malcolm y Angus Young. Desde sus orígenes llevan vendidos alrededor de los 200 millones de copias por todo el planeta. Se han embarcado en giras multitudinarias por todo el mundo, giras famosas por sus escenografías, vibrantes y catalogadas como espectáculos de primer orden, debido principalmente al extravagante estilo de su guitarrista principal y símbolo, Angus Young quien, uniforma…

Tabs fácil de... Fall of the empire. Accept.

Fall of the empire. Accept.
1.------------------------------------ 2.------------------------------------ 3.------------------------------------ 4.------------------------------------ 5.-------------2/3\2--------0h2h0----- 6.---//-0--0-0-------0--0-0-------3h0-
1.---------------------------- 2.---------------------------- 3.---------------------------- 4.------------------------2--- 5.-------2/3\2------5-----0--- 6.---0-0-------0-0--3-0-0---0-
1.------------------------------------- 2.------------------------------------- 3.------------------------------------- 4.------------------------------------- 5.---------2/3\2--------0h2h0---------- 6.--0--0-0-------0--0-0-------3h0--0-0-
1.--------------------- 2.--------------------- 3.--------------------- 4.--------------------- 5.--2/3\2------4--5---- 6.--------0-0--2--3--0-...
  (1:36) 1.------------------------------------- 2.------------------------------------- 3.---/5-4-2-4-----2----------/5-4-2-4-- 4.------------2-2---5-4-5--2----------2 5.------------------…

Tabs fácil de...Everybody use your goddamn turn signal. Paul Gilbert.

Otro riff en Tablatura fácil del último trabajo del genio de la guitarra Paul Gilbert "I can destroy" del que todavía no podemos disfrutar nada más que a través de pequeños fragmentos que se encuentran en Youtube.
 "Everybody use your goddamn turn signal" se llama el tema al que pertenece este riff con el que puedes practicar, aprender y divertirte.
  Un saludo.
TabsFácil.





Everybody use your goddamn turn signal. Paul Gilbert.

1.---------------------------------|
2.---------------------------------|
3.--------------------------2-2--2-|
4.--------------------2-2h4--------|
5.---------------------------------|
6.-12/--2-2-2-2h5/-7---------------|

1.---------------------------------|
2.---------------------------------|
3.---------------------------------|
4.-2h4h2----------------------2-2h4
5.-------4h2(4)--------------------|
6.--------------2-2-2-2h5/-7-------|

1.-------------|
2.-------------|
3.-2-2--2------|
4.-----------2-|
5.---------4---|
6.-------------|...

Tabs fácil de... Tan lejos de aquel sueño. Rata Blanca.

Después de 7 años de ausencia, los argentinos Rata Blanca volvían con "Tormenta eléctrica" su 10º álbum, si no recuerdo mal. Un disco cargado de buenos temas y guitarras muy ochenteras, muy al estilo del gran Walter Giardino, como no podía ser de otra manera.
   Uno de ellos es este "Tan lejos de aquel sueño" del cual os quiero dejar el riff en tablatura del inicio del tema, un riff, como ya dijera anteriormente muy de los ochenta y que a mi personalmente me ha gustado mucho.
   Un saludo.
   TabsFácil.


Tan lejos de aquel sueño. Rata Blanca.

1.---------------------------------- 2.---------------------------------- 3.---------------------------------- 4.-----6-6---6-6---6-6---6-6-------- 5.-//--4-4/--4-4/--4-4/--4-4-----7-4 6.---------------------------4-7----
1.----------------------------------- 2.----------------------------------- 3.----------------------------------- 4.--------------------------------6-6 5.------4---4-4-----7-4--2--------4-4 6.--4-7---7-----4-7--------4-2-0-…

Acordes de... Por la boca vive el pez. Fito & fitipaldis.

De manera paralela a Platero y tú, Fito Cabrales creaba Fito & Fitipaldis en 1998, una banda donde el guitarrista y compositor daba cabida a letras que no encajaban en el estilo de Platero y tú banda en la que hablaba de temáticas más cercanas a bares, amores, drogas y rock and roll. 
 En 2001 Platero y tú se disolvían y Fito decide centrarse y seguir con el que fuera su proyecto en solitario, Fito & Fitipaldis, no en vano su primer disco “A puerta cerrada” consigue ser disco  de platino.


 Después vendrían discos como Los sueños locos (2001), Lo más lejos a tu lado (2003), Por la boca vive el pez (2006), Antes de que cuente diez (2009) y Huyendo conmigo de mí (2014). Con los que la banda ha conseguido numerosos discos de platino más, incluso de diamante, por vender más de un millón de discos en el año 2007, además de premios de la Música, Premios ondas, y estar nominado a los Grammys Latinos.
Fito & Fitipaldis se ha convertido sin duda en una banda referente y exponente de…