.

banners

Tabs fácil de...Los infortunios de la virtud. Legado de una tragedia II.



legado de_tablaturas_faciles


  Qué mejor manera de celebrar la salida del primer sencillo de Legado de una tragedia III que con  un tema de Legado de una tragedia II. Cada tema que escucho de la obra me gusta más. A ver si  sale ya íntegra la tercera parte la obra que, no sé porqué me da que no me va a defraudar, ni a mi ni a nadie.  
 Un saludo.
 TabsFácil.




Los infortunios de la virtud. Legado de una tragediaII.


(0:52)
1.-------------------
2.-------------------
3.-------------------
4.---3-3---3/2---2/5-
5.-------------------
6.-------------------. . . 

(2:02)
“Lujuria y perversión…
1.-----------------------------------------------
2.-----------------------------------------------
3.-----------------------------------------------
4.-7--7-7---7-7---7--------------------10-9-7--7-
5.-5--5-5---5-5---5--5---5-5--5-5---5---8-7-5--5-
6.-------------------3---3-3--3-3---3-----------. . .

(3:25)
“Si nacemos en la soledad sobreviven los más...
1.--------------------------------------
2.---------------------------------------
3.---------------------------------------
4.-----------8---------------------------
5.-5---------6--------8----------------3-
6.-3------------------6----------------1-


Nunca nada has de sacrificar en virtud de...
1.----------------------------------------
2.----------------------------------------
3.----------------------------------------
4.-----------8--------------------------2-
5.-5---------6--------8-----------------0-
6.-3------------------6-------------------


Busqué en lo más profundo en mí aquel recóndito...
1.--------------------------------------------
2.--------------------------------------------
3.-------------------------------------------
4.-8------------------------------8---------7-
5.-6---------------------5--------6---------5-
6.-----------------------3--------------------


Donde podía saciar mi propio yo. . .
1.----------------------------------
2.----------------------------------
3.----------------------------------
4.---8----------------------------3-
5.---6----------5-----------------1-
6.--------------3-------------------



(4:00)
1.--------------------------------------------
2.-8(10)------------------8--5h6h5------------
3.-------9h10h9---/7-9-10----------4(5)(4)-/5-
4.--------------------------------------------
5.--------------------------------------------
6.--------------------------------------------


1.-5-6-8--10h8-10--8h6h5------------------20-
2.------------------------20(22)-20-18-22----
3.-------------------------------------------
4.-------------------------------------------
5.-------------------------------------------
6.-------------------------------------------


1.-17-20-17-20-17-20-17--15-17-18-17(18)--15---
2.-------------------------------------------18
3.---------------------------------------------
4.---------------------------------------------
5.---------------------------------------------
6.---------------------------------------------


1.-------------18-17-15---------------------------
2.-17-15-17-18----------18-17-15-17-17(18)(17)h18-
3.------------------------------------------------
4.------------------------------------------------
5.------------------------------------------------


6.---------------------------------------------...





No hay comentarios:

Publicar un comentario