.

banners

Tabs fácil de...Lords of black. Lords of Black.







  Un tema impresionante a mi gusto, potente y heavy a no poder más, de lo mejor que he escuchado últimamente sin duda. Lords of Black se han marcado dos discos en su corta carrera que merecen la pena, sin duda.
   Os dejo unos momentos en tablatura del tema, que bien sirven para aprender a tocar el buen heavy metal, sin concesiones.
   Un saludo.
   TabsFácil.







Lords of black. Lords of black.




1.---------------------------------------------------
2.-/8-9-6--------------/8-9-6------------9--11-8--9-6
3.--------12-9----------------12-9--9-10-------------
4.-------------10-8-10-------------------------------
5.---------------------------------------------------
6.---------------------------------------------------

1.---------------------------------------------------
2.-/9-11-8--9-6--5-6-8--/8-9-6--------------/8-9-6---
3.-----------------------------12-9----------------12
4.----------------------------------10-8-10----------
5.---------------------------------------------------
6.---------------------------------------------------

1.---------------------------------------------------
2.----------9---11-8---9-6---/9-11-8---9-6-----------
3.-9---9-10------------------------------------------
4.---------------------------------------------------
5.------------------------------------------6---5---3
6.------------------------------------------4---3---5

1.------------------------------------------------
2.------------------------------------------------
3.------------------------------------------------
4.------------------------------------------------
5.------------------------------------------------
6.-1-1-1-4--4-4-4-4--4--4-4-4-6--4-4-4-4--4--4-4-4

1.------------------------------------------------
2.-------------------------------------------------
3.-------------------------------------------------
4.-------------------------------------------------
5.----3-3-3-3-3--3-3-3-3--3-3-3-3-3--3-3-3-3--8-8-8
6.-6-----------------------------------------------

1.--------------------------------------------------
2.--------------------------------------------------
3.--------------------------------------------------
4.--------------------------------------------------
5.-8-8-8-8-8-8-8--6-6-6-6-6-6-6-6-6--8-8-8-8-8-8-8-8
6.--------------------------------------------------

1.---------------------------------------------------
2.---------------------------------------------------
3.---------------------------------------------------
4.---------------------------------------------------
5.-8-8--3-3-3-3-3-3-3-3-3-3--8-8-8-8-8-8-8-8-8-8--6-6
6.---------------------------------------------------

1.---------------------------------------------------
2.---------------------------------------------------
3.---------------------------------------------------
4.--------------------------------------5-5-5-5-5-5-5
5.-6-6-6-6-6-6-6-6--8-8-8-8-8-8-8-8-8-8--------------
6.---------------------------------------------------

1.------------------------------------------------
2.------------------------------------------------
3.------------------------------------------------
4.------------------------------------------------
5.-5-5-5--5--6-5---5-3---5-5---5---6-5---5-3---5-5
6.--------3--4-3---3-1---3-3---3---4-3---3-1---3-3

1.----------------------------------------------
2.----------------------------------------------
3.----------------------------------------------
4.----------------------------------------------
5.-6---6-5---5-3---3-3---6---6-5---5-1----------
6.-4---4-3---3-1---1-1---4---4-3---3-1---1-1-4-3-...

(2:23)
1.------------------------------------------------
2.-/5--/6--/8---/9---/6---/8-5-/6-/1---/5---/6--/8
3.-------------------------------------------------
4.-------------------------------------------------
5.-------------------------------------------------
6.-------------------------------------------------

1.------------------------------------------------
2.-/11---/9-8-6-8-9-8---/5---6-8---/9---6-8-5-6-1-
3.------------------------------------------------
4.------------------------------------------------
5.------------------------------------------------
6.------------------------------------------------

1.------------------------------------------------
2.-/5--/6---/8---/11--/9-8-6-8-9-8--/5-6-6--------
3.--------------------------------------------/8-10
4.-------------------------------------------------
5.-------------------------------------------------
6.-------------------------------------------------

1.--------------------------------------------------
2.--------------------/9----------------------------
3.-12--/10-8----8-10-----/12---/10---/8-7--/8-5--/12
4.-----------12-------------------------------------
5.--------------------------------------------------
6.--------------------------------------------------

1.--------------------------------------------------
2.-------------------------/9--/8--/6---/4--/3------
3.-13-15--13-12----12-13----------------------/5--/4
4.--------------15----------------------------------
5.--------------------------------------------------
6.-----------------------------------------------...

No hay comentarios:

Publicar un comentario