.

banners

Tabs Fácil de...Let's go. Def Leppard.

  
                               



tablaturas_def_leppard


  Con este tema nos adelantaban el anuncio de lo que se convirtió en el último hasta el momento, trabajo de Def leppard. El disco que llevaba el nombre de la banda, salía a finales de Octubre y representaba la vuelta de estos grandes del heavy/rock, de los que no teníamos disco desde el 2007.
  Del adelanto "Let's go" un tema muy Def Leppard, os quiero dejar unos momentos en tablatura fácil del inicio de la canción, que espero como siempre os digo que disfrutéis, un saludo.
  TabsFácil.





Let's go. Def Leppard.


1.-----------------------------------
2.-----------------------------------
3.--3-------1---3---1---1---1h3------
4.--1-----3---3---3---3---3----------
5.----1-1------------------------1-1-
6.-----------------------------------

1.-----------------------------------
2.-----------------------------------
3.----1---3---1---1-0----------1---3-
4.--3---3---3---3-----1------3---3---
5.-----------------------1-1---------
6.-----------------------------------

1.------------------------------------
2.------------------------------------
3.----1---1---1h3--------1---3-3h1----
4.--3---3---3----------3---3-------1(3)
5.-----------------1-1----------------
6.------------------------------------

1.---------------------
2.---------------------
3.-----3-3---3-3---3-3-
4.-----1-1---1-1---1-1-
5.--1------------------
6.---------------------...

(1:08)
1.------------------------------------
2.------------------------------------
3.------------------------------------
4.--------6-6---------3-3---------6-6-
5.--4-4---4-4---6-6---1-1---4-4---4-4-
6.--2-2---------4-4---------2-2-------

1.------------------------------------
2.------------------------------------
3.------------------------------------
4.------6-6--5-5--3-3-----------------
5.--6---4-4--3-3--1-1---6-6--4-4--3-3-
6.--4-------------------4-4--2-2--1-1-

1.-----------
2.-----------
3.-----------
4.--8-8------
5.--6-6--6-6-
6.-------4-4-...

No hay comentarios:

Publicar un comentario