.

banners

Tabs fácil de...Gato negro. Legado de una tragedia I.





   Que alegría tras conocer la noticia de que vuelve la tercera entrega de Legado de una tragedia, dejando atrás si está o no el cantante o guitarrista favorito de cada uno, hay muchas ganas de escucharlo ya. De momento os dejo un pequeño trozo de uno de los temas de la primera parte en formato tablatura.
Que lo disfrutéis. 
  Un saludo.
  TabsFácil.








Gato negro. Legado de una tragedia.


(0:27)
1.--------------------------------------------------
2.--------------------------(HH)----------12(14)(12)
3.-----------6---------------8-10(11)(10)-----------
4.-8-9----8----9-6-8--8-9---------------------------
5.-----11-----------------11------------------------
6.--------------------------------------------------


1.---------------------------------------------------
2.---------------------------------------------------
3.-----------6--------------------------------8-10-11
4.-8-9----8----9-6-8--8-9----8---------8-9-11--------
5.-----11-----------------11----8-9-11---------------
6.---------------------------------------------------


1.-------------------
2.--------------9-11-
3.---10-8-10-11------
4.-------------------
5.-------------------
6.------------------- . . .



No hay comentarios:

Publicar un comentario