.

banners

Tabs fácil de...Delirios de amor. Legado de una tragedia I.



tablaturas_faciles_legado_de una_tragedia


    Atrás queda esta primera parte de "Legado de una tragedia" después de publicada la segunda parte que tan buenas criticas sigue recibiendo, y ya casi en la calle "Legado de una tragedia III" pero tenía por ahí abandonado este cover para guitarra que no he llegado a grabar, la verdad por que no soy grabando un lince, no hay más que ver alguna que otra grabación que tengo por ahí. El caso es que es un tema muy bonito y que me sonaba muy bien para tocarlo con guitarra.
   A quién le interese, ya sea por curiosidad, por divertirse e incluso por practicar con la guitarra con un tema a mi gusto, ya lo he dicho, muy bonito.
   Un saludo.
   TabsFácil.


Delirios de amor. Legado de una tragedia I. (cover).




1.-----------------------------9-10-7----9-10-7--
2.------------------------------------7--------7-
3.-----------------------------------------------
4.-----------------------------------------------
5.---4-5---4-5---4-5---4-5-----------------------
6.-7-----7-----7-----7---------------------------

1.---9-9-10-7----7-9--------7-9-------9-9-10-7---
2.------------8------10---------10-------------7-
3.----------------------9----------9-------------
4.-----------------------------------------------
5.-----------------------------------------------
6.-----------------------------------------------

                     “Querido  Poe…
1.-------------------------------------------------
2.-10-8--------------------------------------------
3.------11-9-7------------7---------7--------------
4.-------------11-9----11---9----11---9------------
5.-------------------9---------9--------/9-9-10-10-
6.-------------------------------------------------

1.-------------------------------------------------
2.-------------------------------------------------
3.-6-6/7-6-6--6-7-6-----------------7--------7-----
4.------------------9-7-7/9-9----11---9---11---9---
5.----------------------------9---------9--------9-
6.-------------------------------------------------

                                              (1:00)
1.-------------------------------------10-9-7-------
2.--------------------------------------------10-8-7
3.------------6-6/7--6-6--6-7-6---------------------
4.------------------------------9-7/9---------------
5.-9-9/10-10----------------------------------------
6.--------------------------------------------------

1.-----------------------------------------------
2.-----------------------------------------------
3.---6-6h7-7---6-7-6---------------6-7---7-7h6---
4.-9-----------------9-7-7-/9-9--9-------------9-
5.-----------------------------------------------
6.-----------------------------------------------

1.----------------------------------------------
2.----------------------------------------------
3.-------------6-6h7-7--7-7h6--7-7h6------------
4.-7-7/9-9---9-----------------------9-7--------
5.---------------------------------------10-9-9-
6.----------------------------------------------

                                         (1:30)
1.------------------------------------------------
2.--------------5-5--3-3--------------------------
3.----------------------/6-6-7--4-2-4-------------
4.------------------------------------------------
5.-7-7-5-5-4-5---------------------------14-16-16-
6.------------------------------------------------

1.------------------------------------------------
2.------------------------------------------------
3.-----------------------------------------/12-12-
4.--------------------19-21-17----19-21-17--------
5.-17-17--17-16-14-12----------17-----------------
6.------------------------------------------------

1.-------------------
2.-------------------
3.---12h11---11h9h11-
4.-------------------
5.-------------------
6.-------------------





No hay comentarios:

Publicar un comentario en la entrada