.

banners

Tabs fácil de...Corazón de invierno. Dünedain.





   Suenan geniales estos Dünedain escuches el tema que escuches, como el que hemos elegido para este momento tablatura, "Corazón de invierno."
La verdad es que la intro del tema es mucho más larga pero bueno para disfrutar un ratito e incluso para animarse a sacar el tema entero está bien, así que ahí va, esperamos que disfrutéis y os guste.
  Un saludo.
  TabsFácil.




 Corazón de invierno. Dünedain.

(Guitarra solista).
1.------------------------------5-------------------
2.---------6---------6------6-8---8-6-8-6-5-6h5h3---
3.-7---7-9---7---7-9---7--7-----------------------5-
4.---7---------7------------------------------------
5.--------------------------------------------------
6.------------------------------------------7 veces-


1.-----------------------------5--------------------
2.--------6---------6------6-8---8-6-8-6-5-6h5h3----
3.-7--7-9---7---7-9---7--7-----------------------5-7
4.--7---------7-------------------------------------
5.--------------------------------------------------
6.--------------------------------------------------


1.------------------------
2.---6-5----------6-5-----
3.-------7---5-7------7---
4.---------7--------------
5.------------------------
6.------------------------


Guitarra rítmica.
1.------------------------------------------------
2.------------------------------------------------
3.------------------------------------------------
4.-7--7---10---------------7---8--10--------------
5.-5--5----8---10--7---7---5---5---8--10---7---7-
6.--------------8--5---5---------------8---5---5...





No hay comentarios:

Publicar un comentario