.

banners

Tabs fácil de... Winterland. Andy Timmons.



  Desde el 30 de Septiembre ya podemos disfrutar de un nuevo trabajo del gran guitarrista Andy Timmons. Un disco que lleva por título "Theme from a perfect world" en el que podemos encontrar esa maestría y buenas melodías a las que nos tiene acostumbrados este virtuosos de la guitarra.
  "Winterland" se llama el tema oficial de presentación del álbum y hoy en tablaturas fáciles, como no podía ser de otra manera, os queremos dejar unos momentos en tablatura.
  Un saludo.
  TabsFácil.





Winterland. Andy Timmons.


1.--------------------------------2/4-2-|
2.-2--2-------2-2--2h3------2h3-2-------|
3.-2--2-----2----------2h4--------------|
4.-4--4--/4-----------------------------|
5.-4------------------------------------|
6.--------------------------------------|

1.--------------------------------------|
2.-0h2-//-2h0---------------2-----------|
3.-------------2-2h4--2-2/4---2h1-------|
4.--------------------------------4-----|
5.--------------------------------------|
6.--------------------------------------|

1.--------------------------------------|
2.--------2---------------/7/5-2--------|
3.----2-4-------------2-4------------/2-|
4.-/4-----------4--/4-------------/4----|
5.-----------/5-------------------------|
6.--------------------------------------|

1.--------------------------------------|
2.---2------0h2-------------------------|
3.-4------2------4--2--4--2-------------|
4.------4--------4--4--4--4--/4--2h4-/7-|
5.----------------------------4---------|
6.--------------------------------------|

1.--------------------------------------|
2.--------2-------------------/7\5-2----|
3.----2/4----4(6)(4)-2----2-4-----------|
4.-/4------------------2----------------|
5.--------------------------------------|
6.--------------------------------------|

1.--------------------------------------|
2.-----------2-------0h2----------------|
3.-------2-4-------2------4-2-4-2-------|
4.-2/4-4--------/4--------4--------4----|
5.---------------------------------4----|
6.--------------------------------------|

1.--------------------------------------|
2.--------------------------------------|
3.---------4-4-4--7-7-7-7-7-------------|
4.-2h4-/7--------------------7-7-7--11--|
5.--------------------------------------|
6.--------------------------------------|

1.--------------------------------------|
2.--------------------------------------|
3.-------------------------7-7/9-11-----|
4.-11-11-11-11--------9-11--------------|
5.--------------10-12-------------------|
6.--------------------------------------|

1.----------5--------|
2.--------7--------7-|
3.-/7-7-9------7-9---|
4.-------------------|
5.-------------------|
6.-------------------|...



No hay comentarios:

Publicar un comentario