.

banners

Tabs fácil de... La bestia de ojos dentados. Legado de una Tragedia III.


   Entusiasmados nos ha dejado  la escucha del primer sencillo de esta tercera parte de Legado de una Tragedia que lleva por título "La bestia de ojos dentados."  Entusiasmados y con muchas ganas de escucharla completa...
    Mientras esperamos, aquí en tablaturas fáciles os dejamos unos pequeños momentos en tablatura del tema, en concreto del primer solo y del riff que acompaña al segundo solo, además del link donde puedes ir reservando la obra.

  Un saludo.
  TabsFácil.




La bestia de ojos dentados. Legado de una tragedia III.




  (3:29)

1.--------------4-----------|
2.-/9------/5-7----/9-10----|
3.----6-6----------------11-|
4.--------------------------|
5.--------------------------|
6.--------------------------|

1.--------------4-4/-9----9-|
2.-9---7---5------------9---|
3.---9---8---6--------------|
4.--------------------------|
5.--------------------------|
6.--------------------------|

1.---11---12----/16(17)(16)-|
2.-9----9----9--------------|
3.--------------------------|
4.--------------------------|
5.--------------------------|
6.--------------------------|

1.--------/17-17------------|
2.-19-19---------21-21(23)(21)
3.--------------------------|
4.--------------------------|
5.--------------------------|
6.--------------------------|...

 (3:57)

1.------------------------|
2.------------------------|
3.------------------------|
4.------------------------|
5.-------------4-3-1-3----|
6.-1--1-1--1-1---------1--|

1.------------------------|
2.------------------------|
3.------------------------|
4.-----------1------------|
5.-------------4-3-4------|
6.-1-1--1-1----------1--1-1

1.------------------------|
2.------------------------|
3.------------------------|
4.---------------6--5--3--|
5.-----4-3-1-3---4--3--1--|
6.-1-1--------------------|...








No hay comentarios:

Publicar un comentario en la entrada