.

banners

Tabs fácil de... Hotel de mil estrellas. Bürdel King.


  Mientras ya está en la calle el segundo trabajo de Burdel King, aquí en Tabs fáciles queremos dejarte unos momentos en tablatura de uno de los temas pertenecientes al que fuera el primer trabajo de la banda irreverente del gran Txus di Felllatio.
  "Hotel de mil estrellas" es el tema del que hoy queremos dejarte unos momentos del solo que esperamos que os gusten y disfrutéis.
  Un saludo.
  TabsFácil.






Hotel de mil estrellas. Burdel king. (solo).



   (2:47)
1.--------------------------8-6-5h6h5h6h5-
2.---8(10)-/10-8-6-5--5h6h8---------------
3.----------------------------------------
4.----------------------------------------
5.----------------------------------------
6.----------------------------------------

1.----------------------------------------
2.---8h6-8-10--8h6h5----------------------
3.-------------------7--------------------
4.----------------------/8-7-5---5h7-7----
5.-----------------------------8----------
6.----------------------------------------

1.-----------------------------------------
2.-----------------------------------------
3.-----15h17h15-18(20)(18)-17--15-13-15(17)
4.-/18-------------------------------------
5.-----------------------------------------
6.-----------------------------------------

1.-----------------------------------------
2.-----------------------------------------
3.---(15)-13----13--------------8-10h8-----
4.-----------17-----17-15-13-15--------8/6-
5.-----------------------------------------
6.-----------------------------------------

1.-----------------------------------------
2.----------------------------------/18-16-
3.-----------------8-10-------13-15--------
4.---8h10-----8-10------13-15--------------
5.--------11-------------------------------
6.-----------------------------------------

1.-------18-18--16-20-
2.---/21--------------
3.--------------------
4.--------------------
5.--------------------
6.--------------------...


   (3:51)
1.-----------------------------------------
2.-------8h10h8--11(13)(11)-10--8-6--8(10)-
3.---/10-----------------------------------
4.-----------------------------------------
5.-----------------------------------------
6.-----------------------------------------

1.--------------------------------8---
2.---(8)-6---6--------------8-/10---8-
3.---------9---9----7-/--10-----------
4.---------------10-------------------
5.------------------------------------
6.------------------------------------

1.-------10h8-------------------------------
2.---/10------10h8-----8h10h8--11(13)(11)-10
3.-----------------10-----------------------
4.------------------------------------------
5.------------------------------------------
6.------------------------------------------

1.------------------------------------------
2.---8--6-8(10)(8)-6---6--------------------
3.-------------------9---9----7------12-14--
4.-------------------------10----/14--------
5.------------------------------------------
6.------------------------------------------

1.---------------------
2.-------18-17--18--20-
3.---/17---------------
4.---------------------
5.---------------------
6.---------------------...

No hay comentarios:

Publicar un comentario en la entrada