.

banners

Tabs fácil de... Hate to see you go. The Rolling Stones



   El 2 de Diciembre volveremos a tener disco de los Rolling Stones después de más de una década.
El disco llevará por título "Blue & Lonesome" del que ya podemos disfrutar de dos sencillos, el último "Hate to see you go" ya lo tenemos para ti en Tablaturas fáciles.
  Disfruta de unos momentos en tablatura de The Rolling Stones aquí, en tabsfacil.es.
  Un saludo.
  TabsFácil.










Hate to see you go.

1.----------------------------|
2.-6(8)(6)-3-1----------------|
3.-------------0h3-----3-5----|
4.------------------5--3-5--5-|
5.------------------5-------5-|
6.----------------------------|

1.--------------------------------|
2.-6(8)(6)-3-1--------------------|
3.-------------0h3h0h3-----3-5----|
4.----------------------5--3-5--5-|
5.----------------------5-------5-|
6.--------------------------------|

1.--------------------------------|
2.-6(8)(6)-3-1--------------------|
3.-------------0h3h0h3-----3-5----|
4.----------------------5--3-5--5-|
5.----------------------5-------5-|
6.--------------------------------|

1.--------------------------------|
2.-6(8)(6)-3-1--------------------|
3.-------------0h3h0h3-----3-5----|
4.----------------------5--3-5--5-|
5.----------------------5-------5-|
6.--------------------------------|

1.--------------------------------|
2.-6(8)(6)-3-1--------------------|
3.-------------0h3h0h3-----3-5----|
4.----------------------5--3-5--5-|
5.----------------------5-------5-|
6.--------------------------------|



1.-3--1--------------------|
2.-3----3-1----------------|
3.----------0h3-----3-5----|
4.---------------5--3-5--5-|
5.---------------5-------5-|
6.-------------------------|

1.-3-1------------------------|
2.-----3-1--------------------|
3.---------0h3h0h3-----3-5----|
4.------------------5--3-5--5-|
5.------------------5-------5-|
6.----------------------------|

1.-3--1--------------------|
2.-3----3-1----------------|
3.----------0h3-----3-5----|
4.---------------5--3-5--5-|
5.---------------5-------5-|
6.-------------------------|...



No hay comentarios:

Publicar un comentario en la entrada