.

banners

Tabs Fácil de... El señor de los sueños. Legado de una tragedia II.







    Otro momento en tablatura de Legado de una tragedia II que comparto con vosotros. Espero que os guste como ha quedado y que lo disfrutéis como estoy disfrutando yo de esta pedazo de obra maestra de la que ya queda muy poco para la llegada de su tercera parte.
   Un saludo.
   TabsFácil.



El señor de los sueños. Legado de una tragedia II.


1.--------------------------------------------
2.--------------------------------------------
3.----------------------------------------4-5-
4.-6-------------------6-------4---5---/5-----
5.-4---4-4--4-4--4-4---4---4---2---3----------
6.-------------------------2------------------

1.--------------------------------------------
2.----------------------------5---------------
3.--------------------------6---6-------------
4.-----5------4--6--6-----6-------6-----6-----
5.-7-------6-----4--4---4-----------7---4---4-
6.-5-------4--------------------------------2-

1.-----------------------------------------------
2.-----------------------------------------------
3.----------------4-5----------------------------
4.-/4-2--4--5--/5------------------------------6-
5.-------2--3----------7--6---6-6-6-6-6-6-6-6--4-
6.---------------------5--4---4-4-4-4-4-4-4-4----...





No hay comentarios:

Publicar un comentario