.

banners

Tabs fácil de... Conquer or die. Megadeth.


guitar_tabs_megadeth

   Interesante las fusiones del sonido Megadeth y el virtuosismo y estilo de Kiko Loureiro que se ven plasmadas en el último trabajo de los de Mustaine y que ya os hemos dejado plasmadas en Tablaturas fáciles. 
   Hoy, os queremos dejar otro momento en tablatura perteneciente a otro temazo, el instrumental "Conquer or die" el que es el último sencillo de la banda, con e lque esperamos, como siempre, que os guste y disfrutéis.
   Megadeth vuelve a tabsfacil.es.
   Un saludo.
   TabsFácil.







Conquer or die. Megadeth.


(1:16)

1.-----------------------------------|
2.-----------------------------------|
3.-------------------------7-------7-
4.-7-7-7-7-----7-5-----5-8-------7---|
5.-5-5-5-5--/8-----8-7-------8-7-----|
6.-----------------------------------|

1.-----------------------------------|
2.-----------------------------------|
3.-----------------------------------|
4.-7-7-7-7-----7-5---------5------5--|
5.-5-5-5-5--/8-----8-7---7------4----|
6.---------------------6------5-----8

1.-----------------------------------|
2.-----------------------------------|
3.----------------------------7------|
4.-7-7-7-7-----7-5----------8-------7
5.-5-5-5-5--/8-----8-7--/10-----8-7--|
6.-----------------------------------|

1.----------------|
2.----------------|
3.-7--------------|
4.----------------|
5.----7--5--3--2--|
6.----5--3--1--0--|

1.-----------------------------------|
2.-----------------------------------|
3.-------------------------7-------7-
4.-7-7-7-7-----7-5-----5-8-------7---|
5.-5-5-5-5--/8-----8-7-------8-7-----|
6.-----------------------------------|

1.-----------------------------------|
2.-----------------------------------|
3.-----------------------------------|
4.-7-7-7-7-----7-5---------5------5--|
5.-5-5-5-5--/8-----8-7---7------4----|
6.---------------------6------5-----8

1.-----------------------------------|
2.-----------------------------------|
3.----------------------------7------|
4.-7-7-7-7-----7-5----------8-------7
5.-5-5-5-5--/8-----8-7--/10-----8-7--|
6.-----------------------------------|

1.--------------------------|
2.--------------------------|
3.-7------------------------|
4.-----------------7-7-7-7--|
5.----7--5--3--2---5-5-5-5--|
6.----5--3--1--0------------|...



No hay comentarios:

Publicar un comentario en la entrada