.

banners

Tabs fácil de... Atlas, rise! Metallica.


   Ya podemos escuchar un tercer tema del próximo disco y esperado de Metallica. La banda afincada en San Francisco saca a la luz "Atlas, rise!" el tercer single de "Hardwire... to self-Destruct" y como no podía ser de otra manera, ya tenemos unos momentos en tablatura del tema aquí, en Tablaturas fáciles, así que, sin más dilación y esperando que os guste, "Atlas, rise!"
  Un saludo.
  TabsFácil.


                           




Atlas, rise! Metallica.


1.---------------------------|
2.---------------------------|
3.---------------------------|
4.-2-----2-2-----2---------2-|
5.-0-----0-0-----0-0-1-0---0-|
6.---0-0-----0-0---------3---|

1.---------------------------|
2.---------------------------|
3.---------------------------|
4.----2-2-----2---------2----|
5.----0-0-----0-0-1-0---0----|
6.-0-0----0-0---------3---0-0|

1.---------------------------|
2.---------------------------|
3.---------------------------|
4.-2-2------2---------2------|
5.-0-0------0-0-1-0---0------|
6.-----0-0----------3---0-0--|

1.------------------------|
2.------------------------|
3.------------------------|
4.-2-2------------------2-|
5.-0-0--0-1-0------3-2--0-|
6.------------3-1--1-0----|...


(4:21)

1.---------------------------|
2.---------------------------|
3.---------4----------------4
4.-/5--4-5---5-4-5--/5--4-5--|
5.---------------------------|
6.---------------------------|

1.---------------------------|
2.------/5--5--5--5--5--3-5-/7
3.---------------------------|
4.-5-4-----------------------|
5.---------------------------|
6.---------------------------|

1.---------------------------|
2.-7--7--7--7--8-7-3--3--3--3
3.---------------------------|
4.---------------------------|
5.---------------------------|
6.---------------------------|

1.---------------------------|
2.--3------5---------/8-7-8-7
3.----5h7---5--5--5----------9
4.---------------------------|
5.---------------------------|
6.---------------------------|

1.-------------------------------|
2.-8-7---8-7---8-7---8-7---8-7---8
3.-----9-----9-----9-----9-----9-|
4.-------------------------------|
5.-------------------------------|
6.-------------------------------|

1.-------------------------------|
2.-10-8----10-8----10-8----10-8---
3.------11------11------11------11
4.-------------------------------|
5.-------------------------------|
6.-------------------------------|

1.-------------------------------|
2.-10-8----8---------------------|
3.------11----11-9----11-9----11-
4.-----------------12------12----|
5.-------------------------------|
6.-------------------------------|

1.-------------------------------|
2.-------------------------------|
3.-9----11-9----11-9----9--12-11
4.---12------12------12----------|
5.-------------------------------|
6.-------------------------------|

1.---------------------------------|
2.-------------------------------/10
3.----12-11----12-11----12-11-------
4.-14-------14-------14-------14----
5.---------------------------------|
6.---------------------------------|


No hay comentarios:

Publicar un comentario