.

banners

Tablatura fácil de...Vamos de concierto. Obus.


  Los veteranos Obus siguen dando guerra. "Siente el rock and roll" es el título de su último disco, que lleva en la calle desde el 6 de Noviembre del año pasado, en donde podemos encontrar una representación de los mejores temas de la banda.
"Vamos de concierto" es el tema elegido para presentación del disco y para el cuál han grabado también un video clip. Es de éste tema del que os quiero dejar unos momentos en tablatura que, espero que os gusten y disfrutéis.
  Un saludo.
  TabsFácil.







Vamos de concierto. Obus.

1.-------------------------------------
2.-------------------------------------
3.-------------------------------------
4.-------------------------------------
5.-----3-/5--3h2h0h2--2h0---0--3h2h0h2-
6.-3h7--------------------3------------

1.---------------------
2.---------------------
3.---------------------
4.---------------------
5.-3h2h0h5--3h2h0--7-5-
6.---------------------...

(0:29)
1.---------------------------------------
2.---------------------------------------
3.---------------------------------------
4.--5--3-5-5--3-/5-5--3-5-5--3-5-5--3-5-5
5.--5--3-5-5--3-/5-5--3-5-5--3-5-5--3-5-5
6.---------------------------------------

1.------------------------------------
2.------------------------------------
3.--4-5-4--7-7--7-7-5-4-5-4--4--4-5-4-
4.------------------------------------
5.------------------------------------
6.------------------------------------

1.------------------------------------
2.------------------------------------
3.-7-7--7-7-5-4-5-4--/9-10-12--9-10-12
4.------------------------------------
5.------------------------------------
6.------------------------------------

1.----------------------------------
2.----------------------------------
3.-9-10-12--9-10-12--4-5-4-7-7--7-7-
4.----------------------------------
5.----------------------------------
6.----------------------------------

1.-----------------------------------
2.------------1-3---1-3---1-3---1-3-3
3.-5-4-5-4--2-----2-----2-----2------
4.-----------------------------------
5.-----------------------------------
6.-----------------------------------

1.--------------------------------
2.--------------------------------
3.--------------------------------
4.-3-/5--5-5--3-/5--5-5-3-/5--5-5-
5.--------------------------------
6.--------------------------------

"Cuando el aburrimiento...
1.------------------------------------
2.------------------------------------
3.--4-5-4--7-7--7-7-5-4-5-4--4--4-5-4-
4.------------------------------------
5.------------------------------------
6.------------------------------------

1.-------------------
2.-------------------
3.-7-7--7-7-5-4-5-4--
4.-------------------
5.-------------------
6.-------------------


1.-----------------------------------
2.----3-3-3----3-3-3----3-3-3--------
3.----2-2-2----2-2-2----2-2-2--------
4.--0-0-0-0--0-0-0-0--0-0-0-0------5-
5.----------------------------2-0--5-
6.-----------------------------------...


No hay comentarios:

Publicar un comentario