.

banners

Tablatura fácil de...Por los siglos de los siglos. Dünedain.






 Con la regrabación de este tema "Por los siglos de los siglos"  Dünedain nos presentaba  hace ya un tiempo su nuevo frontman Carlos Sanz y, aprovechando la salida por fin de su nuevo trabajo os queremos desde tablaturas fáciles dejar unos momentos de este buen tema.
  Un saludo.
  TabsFácil.

Por los siglos de los siglos. Dünedain.


   (0:26) Guitarra 2
1.------------------6------------6---
2.------------6-8-9---9-8-6-8--9---9-
3.---5-5--7-8------------------------
4.-----------------------------------
5.-----------------------------------
6.-----------------------------------


   Guitarra 1
1.-----------------------------------
2.-----------------------------------
3.-----------------------------------
4.---5-------------------------------
5.---3-------------------------6---8-
6.-----------------------------4---6-


   Guitarra 2
1.-----------------------
2.---8-6-9-8-------------
3.-----------8-7-5-------
4.-----------------8-6-5-
5.-----------------------
6.-----------------------


   Guitarra 1
1.-----------------------
2.-----------------------
3.-----------------------
4.-----------------------
5.----------3---------5--
6.--------------6-4---3--

    Guitarra 2
1.------------------6------------6---
2.------------6-8-9---9-8-6-8--9---9-
3.---5-5--7-8------------------------
4.-----------------------------------
5.-----------------------------------
6.-----------------------------------


   Guitarra 1
1.-----------------------------------
2.-----------------------------------
3.-----------------------------------
4.---5-------------------------------
5.---3-------------------------6---8-
6.-----------------------------4---6-

     Guitarra 2
1.------------(HH)
2.---8-6-9-8---8-
3.-----------8---
4.---------------
5.---------------
6.---------------...


   Guitarra 1
1.---------------
2.--------------
3.--------------
4.--------------
5.-----------5--
6.-----------3--...


  (4:33)   Guitarra 2
1.-------------------------------------
2.---8--6-8--6-8-9-8-6-8--------6------
3.------------------------5-7-8---8-7-5
4.-------------------------------------
5.-------------------------------------
6.-------------------------------------

  Guitarra 1
1.-------------------------------------
2.-------------------------------------
3.-------------------------------------
4.---5---------------------------------
5.---3--------------------6-----8------
6.------------------------4-----6------


 Guitarra 2
1.-------------------------------------
2.-------8--6-8--6-8-9-8-6-8-----------
3.---7-5---------------------5-8-7-8---
4.-8-----------------------------------
5.-------------------------------------
6.-------------------------------------

  Guitarra 1
1.-------------------------------------
2.-------------------------------------
3.-------------------------------------
4.----5---5----------------------------
5.----3---3-------------------6--------
6.----------------------------4--------

 Guitarra 2
1.-------------------------------------
2.---6-8---4-6-8--8--6-8--6-8-9-8-6-8--
3.-------8-----------------------------
4.-------------------------------------
5.-------------------------------------
6.-------------------------------------


Guitarra 1
1.-------------------------------------
2.-------------------------------------
3.-------------------------------------
4.-------------5--5--------------------
5.---8---------3--3--------------------
6.---6---------------------------------

 Guitarra 2
1.-----------------------------------
2.-----------------------------------
3.-8-7-5--8-7-5--8-7-5--8-7-5--8-7-5-
4.-----------------------------------
5.-----------------------------------
6.-----------------------------------


Guitarra 1
1.-------------------------------
2.-------------------------------
3.-------------------------------
4.-------------------------------
5.-6--6--6--6--6--6--6--6--6--6--
6.-4--4--4--4--4--4--4--4--4--4--

 Guitarra 2
1.---------------------------------------
2.---------------------------------------
3.-10-8-7--10-8-7--10-8-7--10-8-7--10-8-7
4.---------------------------------------
5.---------------------------------------
6.---------------------------------------


Guitarra 1
1.--------------------------------
2.--------------------------------
3.--------------------------------
4.--------------------------------
5.---8--8--8--8--8--8--8--8--8--8-
6.---6--6--6--6--6--6--6--6--6--6-


Guitarra 1
1.--------------------------
2.--------------------------
3.--------------------------
4.---5---3-/5---3-/5---3-/5-
5.---3---1-/3---1-/3---1-/3-
6.--------------------------













                                       

No hay comentarios:

Publicar un comentario en la entrada