.

banners

Tablatura fácil de...Mar adentro. Legado de una tragedia I.





   Otro pedazo más de ese discazo que supuso la primera parte de "Legado de una tragedia" y del que estoy, como mucha gente, deseando que salga la tercera y última parte. De momento si os apetece aquí os dejo un momento en tablatura del tema "mar adentro."
   Un saludo.
   TabsFácil.






Mar adentro. Legado de una Tragedia I.


1.--------------------------------------------
2.------------------------------------------8-
3.---7(9)---7h5h7-----5h7h5---5-------5-7/9---
4.----------------5h7-------7------/7---------
5.--------------------------------------------
6.--------------------------------------------

1.-----------------------------------------------
2.--------------------------------5-6-5--6-8-6-5-
3.-7(9)---/9-7----7-----5h7h5---5----------------
4.-------------10---5h7-------7------------------
5.-----------------------------------------------
6.-----------------------------------------------

1.---------5----------------------------
2.---8-6-5---8-6---12(13)-13(15)-15(17)-
3.--------------------------------------
4.--------------------------------------
5.--------------------------------------
6.-----------------------------------. . .




(1:05)
1.------------------------------------------------
2.----------------------------------------------8-
3.-7(9)--7(9)(7)-5h7-----5h7h5---5-----5-7-7(9)---
4.-------------------5h7-------7---5/7------------
5.------------------------------------------------
6.------------------------------------------------

1.------------------------------------------12------
2.-4-------------15-(17)-15h13h15--13-12-13----13-12
3.---7-5-7(9)-5-------------------------------------
4.--------------------------------------------------
5.--------------------------------------------------
6.--------------------------------------------------

1.----------12----------------12----------/17--13/15
2.-13-12-13----13-12-13-12-13----13-12-13-----------
3.--------------------------------------------------
4.--------------------------------------------------
5.--------------------------------------------------
6.--------------------------------------------------

1.-13-12-13-15----------------------------------
2.-------------13-15(17)-13---15/17-15h13-15/17-
3.----------------------------------------------
4.----------------------------------------------
5.----------------------------------------------
6.---------------------------------------------. . .

No hay comentarios:

Publicar un comentario