.

banners

Tablatura fácil de...Corre mamón. Obus

  

  Poco se puede decir de estos incombustibles que no esté dicho ya, quizás tuvieron épocas mejores, pero para mi gusto todavías les queda tralla para rato. Sea como fuere, aquí un pequeño homenaje en tablaturas fáciles, (que no será el último).
  Un saludo.
  TabsFácil.







Corre mamón. Obus.


(guitarra rítmica)
1.------------------------------------
2.------------------------------------
3.------------------------------------
4.----------------------------3-------
5.----------------------------1---3---
6.---1-1-1-1-muchas veces---------1---

(guitarra solista) 0:20
1.-------------------------------------------------
2.-------------------------------------------------
3.-------------------------------------------------
4.-0h1--1---0h1h0h1---0h1--1-1---1--0h1h0----0-----
5.-----------------------------------------3---3---
6.-----------------------------------------------1-

(guitarra rítmica)
      “Un día…
1.--------------------------------------------------
2.--------------------------------------------------
3.--------------------------------------------------
4.-----------------------3--------------------------
5.-----------------------1---6---3---3--------------
6.---1-1-1-1-muchas veces----4---1---1-1-1-1-ms.veces

1.---------------
2.---------------
3.---------------
4.---3-----------
5.---1---6---3---
6.-------4---1---

“… y aunque…”   0:57
1.-------------------------------------------
2.-------------------------------------------
3.-------------------------------------------
4.---5-------5-------5-------3---3---3-3---3-
5.---3---6---3---6---3---6---1---1---1-1-6-1-
6.-------4-------4-------4---------------4---

(solista)  0:57
1.--------------------------------------------
2.------------------ 10(12)(10)-9-------------
3.---/5---/8---/5-------------------/5---/8---
4.--------------------------------------------
5.--------------------------------------------
6.--------------------------------------------

   “. . . corre, corre. . .”   1:53
1.-----------------------------
2.-----------------------------
3.-----------------------------
4.-----------------------3-----
5.---3-3---3-3---3-3---3-1-6---
6.---1-1---1-1---1-1---1---4---


(solo)   2:24
1.-----------------------------------------------
2.-1---1-1-------------------6-4-----------------
3.-1---1-1----1h3h1---3(5)-5-----5-3----3-3-3----
4.----------3-------3-----------------6-------6--
5.-----------------------------------------------
6.-----------------------------------------------

1.------------------------------------------------
2.-------9-------------9----------------9---------
3.-8-7-8----8-7-10-8-7---8-7-10-7-8-7-8----10-8-7-
4.------------------------------------------------
5.------------------------------------------------
6.------------------------------------------------

1.-------------------------------------------------
2.-------------------6-6----6-6---6-8-6-8-9(10)-10-
3.----7----------/7------/7-----7------------------
4.-10---10---6-------------------------------------
5.-------------------------------------------------
6.-------------------------------------------------

1.-------------------------------------------------
2.----6-6-----6-6-8-8(9)---/18-18-18-16h18---16-18-
3.-/7------/7--------------------------------------
4.-------------------------------------------------
5.-------------------------------------------------
6.-------------------------------------------------


1.-16-15--------------------------------------------
2.-------18-16-18-18-16-18---18-18-16h18-18-16-15---
3.------------------------------------------------17
4.--------------------------------------------------
5.--------------------------------------------------
6.--------------------------------------------------

1.------------
2.------------
3.-15-15-13---
4.------------
5.------------
6.------------

(3:11)
1.----------------------------------------------
2.----------------------------------------------
3.-/13-------/15-------13--------/15----13------
4.-----15-15-----15-15----15-15------15----15-15
5.----------------------------------------------
6.----------------------------------------------

1.----------------(todo el riff 4 veces y …)
2.----------------
3.-/15----13------
4.-----15----15---
5.----------------
6.----------------


1.---------------------------------------
2.---------------------------------------
3.-13------------------------(AH)--------
4.----15-13----------------9(10)(9)------
5.----------15-14-13---11-----------11---
6.---------------------------------------

No hay comentarios:

Publicar un comentario en la entrada