.

banners

Tablatura fácil de... Legado. Dünedain.



  Ya podemos disfrutar de un nuevo trabajo de Dünedain, banda que se ha hecho esperar, como fan que soy pero sin duda una vez escuchado el disco, merecida ha sido la espera.
  Durante estos dias hemos ido publicando algunos momentos en tablatura de algunos de sus últimos temas y hoy, por fin, os queremos dejar ese momento tabs de su tema elegido para presentar el disco,
"Legado" que esperamos que os guste y disfrutéis como siempre.
  Un saludo.
  TabsFácil.





Legado. Dünedain.


1.----------------------------------------|
2.-----------------------------------10---|
3.--------------------------10----12------|
4.----7--3-3-3-3--5-5-5--12----12-------12
5.-//-5--1-1-1-1--3-3-3-------------------|
6.----------------------------------------|

1.----------------------------------------|
2.-------------10----------------13-------|
3.----10----12----10----14----15----------|
4.-12----12----------15----15-------15----|
5.-------------------------------------15
6.----------------------------------------|

1.----------------------------------------|
2.-----------------------------10---------|
3.----------12--------10----12-----------10
4.-14----15----12--12----12-------12--12--|
5.----15----------------------------------|
6.----------------------------------------|

1.----------------------------------------|
2.-------10-------------------------------|
3.----12-------------------7--10-9--------|
4.-12-------12-----8----10---------10-7---|
5.--------------10---10-------------------|
6.----------------------------------------|

1.-------------------|
2.--------------10---|
3.-----10----12------|
4.--12----12-------12
5.-------------------|
6.-------------------|

1.----------------------------------------|
2.-------------10----------------13-------|
3.----10----12----10----14----15----------|
4.-12----12----------15----15-------15----|
5.-------------------------------------15
6.----------------------------------------|

1.----------------------------------------|
2.-----------------------------10---------|
3.----------12--------10----12-----------10
4.-14----15----12--12----12-------12--12--|
5.----15----------------------------------|
6.----------------------------------------|

1.----------------------------------------|
2.-------10-------------------------------|
3.----12-------------------7--10-9--------|
4.-12-------12-----8----10---------10-7---|
5.--------------10---10-------------------|
6.----------------------------------------|

1.----------------------------|
2.----------------------------|
3.-10-9-/-9-7----9-10-9-7-9-7-
4.------------10--------------|
5.----------------------------|
6.----------------------------|...




No hay comentarios:

Publicar un comentario en la entrada