.

banners

Tablatura fácil de... La tierra de los sueños. Dünedain.


  Todo preparado para la salida del esperado disco de Dünedain, ya hay portada, título y fecha que os adelantaremos en la próxima entrada dedicada a la banda, de momento os queremos dejar unos momentos en tablatura de uno de esos temas que han hecho grande a esta banda de la que esperamos un discazo.
  Un saludo.
  TabsFácil.




La tierra de los sueños. Dünedain.



                                      “Cierra

1.---------------------------------------------
2.---------------------------------------------
3.---------------------------------------------
4.-5-5-5-5--5-5-5-5--5-5-5-5--5-5-5-5--5-5-5-5-
5.-3-3-3-3--3-3-3-3--3-3-3-3--3-3-3-3--3-3-3-3-
6.---------------------------------------------



         Los ojos…

1.---------------------------------------------
2.---------------------------------------------
3.---------------------------------------------
4.-5-5-5-5--------------------5-5-5-5--5-5-5-5-
5.-3-3-3-3--5-5-5-5--3-3-3-3--3-3-3-3--3-3-3-3-
6.----------3-3-3-3--1-1-1-1-------------------



1.---------------------------------------------
2.---------------------------------------------
3.---------------------------------------------
4.-------------------5-5-5-5--5-5-5-5----------
5.-3-3-3-3--5-5-5-5--3-3-3-3--3-3-3-3--5-5-5-5-
6.-1-1-1-1--3-3-3-3--------------------3-3-3-3-



1.-----------------------------------------------
2.-----------------------------------------------
3.--------------------------/8-8-7-7-/10-10-8-7-8
4.-----------------------------------------------
5.-6-6-6-6--8-8-8-8--8-8-8-8---------------------
6.-4-4-4-4--6-6-6-6--6-6-6-6---------------------




(0:36) “Resulta duro…

1.---------------------------------------------
2.---------------------------------------------
3.---------------------------------------------
4.----------5----3-----------------------------
5.-6---3----3----1---3----5----6----5----6----8




(0:51) “Llevame esta noche…

1.--------------------------------------------
2.--------------------------------------------
3.--------------------------------------------
4.-8-------------------3-----5-----------5---3
5.-6---8---6---3---6---1-----3---3---6---3---1
6.-----6---4---1---4-------------1---4--------







1.---------------------------------------------
2.---------------------------------------------
3.---------------------------------------------
4.-8-------------------3-----5---------------5-
5.-6---8---6---3---6---1-----3---3---6---3---3-
6.-----6---4---1---4-------------1---4---1-----



Solo (2:35)

   HH
1.----------------------------------------------
2.----------------------------------------------
3.------5-7-8-5-5---5/-12---8-8-7---3-----3-----
4.----5-----------5-------------------5-5---5/8-
5.-3--------------------------------------------
6.----------------------------------------------



          HH              HH
1.-----------------------------------------------
2.-----------------------------------------------
3.---------5--------------5(6)(5)----------------
4.-5-5-6-8---6-5-6---6-8----------8-6-5h6h5h6h5-5
5.-----------------------------------------------
6.-----------------------------------------------



  


1.-------------------
2.-------------------
3.-------------------
4.-6-8---6---5h6h5---
5.-----------------8-
6.-------------------. . .


No hay comentarios:

Publicar un comentario en la entrada